Yeah Yeah Yeahs

Início > Yeah Yeah ... > acordes

Maps Tablatura

Yeah Yeah Yeahs

Dificultad:Ningún gradoNingún grado

Olívia Moraes

tuner correct add songbook print version text version salvar en e-mail
acordesukuleletablaturabajobateríaarmónicaflautacavacopiano Guitar Pro
acordes

Maps

	  INTRO 
e|-10-10-10-10-10-10-10-10-10-|   váááááárias vezes 
 
 
_________________________________________________________________________________ 
VERSOS 
 
e|--7(4x)---3(4x)--7(4x)--10(4x)--7(4x)---3(4x)--12(4x)--15(4x)-----|  
 
Pack up  
I'm straight  
I'm not  
Oh say say say  
Oh say say say  
Oh say say say  
Oh say say say  
Oh say say say  
 
_________________________________________________________________________________ 
Refrão: 
 
e|--19-19-19-19-19-19-19-19-15-15-15-15-15-12-15-12----| 
 
Wait they don't love you like i love you  
Wait they don't love you like i love you  
Maps 
Wait they don't love you like i love you  
 
 
SOLO 1: 
 
e|--19-19-19-17-15-15-15-15--12-12-12-10--15-15-15-15----| 
 
_________________________________________________________________________________ 
VERSO: 
e|--7(4x)---3(4x)--7(4x)--10(4x)--7(4x)---3(4x)--12(4x)--15(4x)-----|  
 
Made off  
don't stray  
well my kinds your kind i'll stay the same  
Pack up  
don't stray  
oh say say say  
oh say say say  
 
_______________________________________________________________________________ 
Refrão: 
 
e|--19-19-19-19-19-19-19-19-15-15-15-15-15-12-15-12----| 
 
Wait they don't love you like i love you  
Wait they don't love you like i love you  
Maps 
Wait they don't love you like i love you  
 
________________________________________________________________________________ 
SOLO 2: 
e|-------------------------------------- 
B|-------------------------------------- 
G|--12--12---11--12--9------------------ 
D|--x---x----x---x---x------------------ 
A|--10--10---9---10--7----5-5-5-5-5~7--- 
E|------------------------3-3-3-3-3~5--- 
 
e|------------------------------------- 
B|------------------------------------- 
G|--12--12--11--12--9------------------ 
D|--x---x---x---x---x------------------ 
A|--10--10--9---10--7----5-5-5-5-5~7--- 
E|-----------------------3-3-3-3-3~5--- 
 
e|-------------------------------------- 
B|-------------------------------------- 
G|--12--12---11--12--9------------------ 
D|--x----x---x---x---x------------------ 
A|--10--10---9---10--7----5-5-5-5-5~7--- 
E|------------------------3-3-3-3-3~5--- 
 
e|---------------------------------- 
B|---------------------------------- 
G|--12-12--11-16-16-14-14-12-12----- 
D|--x---x--x--x--x--x--x--x--x----- 
A|--10-10--9--14-14-12-12-10-10----- 
E|---------------------------------- 
 
 
B|------8----8----8----8---5---5---3---3----8----8----8----8----8----8----8----8-----| 
G|---12---12---12---12---9---9---7---7---12---12---12---12---12---12---12---12-------| 
 
 
________________________________________________________________________________ 
Refrão: 
 
e|--19-19-19-19-19-19-19-19-15-15-15-15-15-12-15-12----| 
 
Wait they don't love you like i love you  
Wait they don't love you like i love you  
Maps...........  
Wait they don't love you like i love you  
Wait they don't love you like i love you  
Maps...........  
Wait they don't love you like i love you  
 
 
 
 
Termina com solo 2  

	  

No existe una video leccione para esta canción

request
LosAcordes
Buscar
auto avanzar rasgueos aumentar disminuir cambiar color esconder acordes gráficos
losacordes exhibir acordes losacordes youTube video losacordes ocultar tabs losacordes ir hacia arriba losacordes