Yeah Yeah Yeahs

Início > Yeah Yeah ... > acordes

Dudley Tablatura

Yeah Yeah Yeahs

Dificultad:Ningún gradoNingún grado

edsooliveira

tuner correct add songbook print version text version salvar en e-mail
acordesukuleletablaturabajobateríaarmónicaflautacavacopiano Guitar Pro
acordes

Dudley

	  Standard tuning (eBGDAE) 

Intro(bass) 
--------------------------| 
--------------------------| 
--------------------------| 
-0--0--0--0--0--0--0--0-0-| 
-5--5--5--5--5--5--5--5-5-| 
--------------------------| 

Intro (guitar) 
-14-14-14-14-14-14-14-14-12-12-12-12-12-12-12-12-------------------------10-10-10-10-10-10-10-10-| 
-------------------------------------------------10-10-10-10-10-10-10-10-------------------------| 
-------------------------------------------------------------------------------------------------| 
-------------------------------------------------------------------------------------------------| 
-------------------------------------------------------------------------------------------------| 
-------------------------------------------------------------------------------------------------| 


-14-14-14-14-14-14-14-14-12-12-12-12-12-12-12-12-10-10-10-10-10-10-10-10-10-10-10-10-10-10-10-10-| 
-------------------------------------------------------------------------------------------------| 
-------------------------------------------------------------------------------------------------| 
-------------------------------------------------------------------------------------------------| 
-------------------------------------------------------------------------------------------------| 
-------------------------------------------------------------------------------------------------| 

Verse 
-2---0---0---0---0---0----3--------------| 
-3---3---3---3---3---3-----2---2---------| 
-2---2---2---2---0---2------(2)----------|  x3 
-0-0-0-0-2-0-0-0-2-0-2-------0-----------| 
-0---0---0---0---0---0---0---------------| 
-----------------------------------------| 

Refrain 
--------------------------------------------------------------------------| 
--------------------------------------------------------------------------| 
---------14--11--------------14--11--12--11----14-11---11-----14-11-13-11-| 
-16~--14---------14--16---14----------------14-------14---12--------------| 
--------------------------------------------------------------------------| 
--------------------------------------------------------------------------| 


Verse 
-2---0---0---0---0---0----3--------------| 
-3---3---3---3---3---3-----2---2---------| 
-2---2---2---2---0---2------(2)----------|  x3 
-0-0-0-0-2-0-0-0-2-0-2-------0-----------| 
-0---0---0---0---0---0---0---------------| 
-----------------------------------------| 

Chorus 
---2---0---0---0--------| 
---3---3---3---3--------| 
---2---2---2---2--------|  x4 
--0---0---2---0---------| 
-0---0---0---0----------| 
------------------------| 

Refrain 
-----------------------------------------------------------------| 
-----------------------------------------------------------------| 
---------14--11--------------14--11--12--11----14-11-12-11----16-| 
-16~--14---------14--16---14----------------14-------------12----| 
-----------------------------------------------------------------| 
-----------------------------------------------------------------| 


Bridge 


-7------------------------------------------------------------------| 
-7---------------------------------------5-5-----5--------7-7-----7-| 
-4-------6-6-----6-----7-7-----7------------------------------------|  x2 
-4---4-4-----4-4---4------------------------------------------------| 
-6-------------------7-7-----7-7--7--7-7-----7-7---7--5-5-----5-5---| 
-4------------------------------------------------------------------| 


---2-2----0-0----0-0----0-0--| 
---3-3----3-3----3-3----3-3--| 
---2-2----2-2----2-2----2-2--|  x8 
--0--0---0--0---2--2---0--0--| 
-0---0--0---0--0---0--0---0--| 
----------------------------| 


---2-2----0-0----0-0------| 
---3-3----3-3----3-3------| 
---2-2----2-2----2-2------|  x1 
--0--0---0--0---2--2------| 
-0---0--0---0--0---0------| 
--------------------------| 

Refrain 
|============== 
|Guitar one 
| -14-14-14-14-14-14-14-14-12-12-12-12-12-12-12-12-------------------------10-10-10-10-10-10-10-10| 
| -------------------------------------------------10-10-10-10-10-10-10-10------------------------| 
| ------------------------------------------------------------------------------------------------| 
| ------------------------------------------------------------------------------------------------| 
| ------------------------------------------------------------------------------------------------| 
| ------------------------------------------------------------------------------------------------| 
| 
| -14-14-14-14-14-14-14-14-12-12-12-12-12-12-12-12-10-10-10-10-10-10-10-10-10-10-10-10-10-10-10-10| 
| ------------------------------------------------------------------------------------------------| 
| ------------------------------------------------------------------------------------------------| 
| ------------------------------------------------------------------------------------------------| 
| ------------------------------------------------------------------------------------------------| 
| ------------------------------------------------------------------------------------------------| 

|    Guitar two 
| -2---0---0---0---0---0----3--------------| 
| -3---3---3---3---3---3-----2---2---------| 
| -2---2---2---2---0---2------(2)----------|  x2 
| -0-0-0-0-2-0-0-0-2-0-2-------0-----------| 
| -0---0---0---0---0---0---0---------------| 
| -----------------------------------------| 

Verse 
-2---0---0---0---0---0----3--------------| 
-3---3---3---3---3---3-----2---2---------| 
-2---2---2---2---0---2------(2)----------|  x3 
-0-0-0-0-2-0-0-0-2-0-2-------0-----------| 
-0---0---0---0---0---0---0---------------| 
-----------------------------------------| 

Outro 
|============== 
| Guitar one 
| ------------------------------------------------------------------7--| 
| ------------------------------------------------------------------7--| 
| ---------14--11--------------14--11--12--11----14-11---11-----16--4--| 
| -16~--14---------14--16---14----------------14-------14---12------4--| 
| ------------------------------------------------------------------6--| 
| ------------------------------------------------------------------4--| 
|  Guitar two 
| -----------------------------------------------------------------------| 
| -----------------------------------------------------------------------| 
| ---------14--11--------------14--11--12--11----14-11---11-----11-12-11-| 
| -16~--14---------14--16---14----------------14-------14---12-----------| 
| -----------------------------------------------------------------------| 
| -----------------------------------------------------------------------| 

----------------------------------------------------------------| 
-------------------------------------5-5-----5--------7-7-----7-| 
-----6-6-----6-------7-7-----7----------------------------------|   
-4-4-----4-4---4------------------------------------------------| 
-----------------7-7-----7-7--7--7-7-----7-7---7--5-5-----5-5---| 
----------------------------------------------------------------| 

--------------------------------------------------| 
-------------------------------------5-5-----5----| 
-----6-6-----6-------7-7-----7--------------------|   
-4-4-----4-4---4----------------------------------| 
-----------------7-7-----7-7--7--7-7-----7-7---7--| 
--------------------------------------------------| 

-2~-----| 
-3~-----| 
-2~-----| 
-0~-----| 
-2~-----| 
--------| 
	  

No existe una video leccione para esta canción

request
LosAcordes
Buscar
auto avanzar rasgueos aumentar disminuir cambiar color esconder acordes gráficos
losacordes exhibir acordes losacordes youTube video losacordes ocultar tabs losacordes ir hacia arriba losacordes