WhiteSnake

Início > WhiteSnake > acordes

Lie Down Tablatura

WhiteSnake

Dificultad:Ningún gradoNingún grado

adalgomes

tuner correct add songbook print version text version salvar en e-mail
acordesukuleletablaturabajobateríaarmónicaflautacavacopiano Guitar Pro
acordes

Lie Down

Tono:  A Más
Lie Down Key EE
Lie Down Key FF
Lie Down Key F#F#
Lie Down Key GG(Disminuir uno tono)
Lie Down Key G#G#(Disminuir uno semi-tono)
Lie Down Key AA(tono original)
Lie Down Key A#A#(Aumentar uno semi-tono)
Lie Down Key BB(Aumentar uno tono)
Lie Down Key CC
Lie Down Key C#C#
Lie Down Key DD
Lie Down Key D#D#
	  
 Intro 
  Q=146 
            C           F/C  C     F/C         C  F/CC 
 4/4 
  Gtr I (El. Gtr. w/ dist.) 
  H    Q  E  S  S    Q   E E  Q  E  E   E  E E  E  E  E E  S  S 
|------------8--8-|--8---8----8-----8-|----8----8--8--8----8--8-| 
|------------8--8-|--8--10----8----10-|---10----8-10--8----8--8-| 
|------------9--9-|--9--10----9----10-|---10----9-10--9----9--9-| 
|-----------10-10-|-10--10---10----10-|---10---10-10-10---10-10-| 
|-----------10-10-|-10---8---10-----8-|----8---10--8-10---10-10-| 
|------------8--8-|--8---8----8-----8-|----8----8--8--8----8--8-| 
| 
| Gtr II (El. Gtr. w/ dist.) 
| W                  Q   E E  Q  E  E   E  E E  E  E  E E  S  S 
|-----------------|--0---1----0-----1-|----1----0--1--0----0--0-| 
|-----------------|--1---1----1-----1-|----1----1--1--1----1--1-| 
|-----------------|--0---2----0-----2-|----2----0--2--0----0--0-| 
|-----------------|--2---3----2-----3-|----3----2--3--2----2--2-| 
|-----------------|--3---3----3-----3-|----3----3--3--3----3--3-| 
|-----------------|-------------------|-------------------------| 


      F/C  C     G         C 
   Q   E E  Q  E E   E E E  E  Q   E  S  S 
|--8---8----8----3-|---3----8--8---8--8--8---| 
|--8--10----8----3-|---3----8--8---8--8--8---| 
|--9--10----9----4-|---4----9--9---9--9--9---| 
|-10--10---10----5-|---5---10-10--10-10-10---| 
|-10---8---10----5-|---5---10-10--10-10-10---| 
|--8---8---------3-|---3----8--8---8--8--8---| 
| 
|  Q   E E  Q  E E   E E E  E  Q   E  E 
|--0---1----0----3-|---3----0--0---0--0------| 
|--1---1----1----3-|---3----1--1---1--1------| 
|--0---2----0----4-|---4----0--0---0--0------| 
|--2---3----2----5-|---5----2--2---2--2------| 
|--3---3----3----5-|---5----3--3---3--3------| 
|----------------3-|---3---------------------| 


        F/C  C     F/C         C  F/CC 
     Q   E E  Q  E  E   E  E E  E  E  E E  S  S 
||---8---8----8-----8-|----8----8--8--8----8--8-| 
||o--8--10----8----10-|---10----8-10--8----8--8-| 
||---9--10----9----10-|---10----9-10--9----9--9-| 
||--10--10---10----10-|---10---10-10-10---10-10-| 
||o-10---8---10-----8-|----8---10--8-10---10-10-| 
||---8---8----8-----8-|----8----8--8--8----8--8-| 
| 
|    Q   E E  Q  E  E   E  E E  E  E  E E  S  S 
||---0---1----0-----1-|----1----0--1--0----0--0-| 
||o--1---1----1-----1-|----1----1--1--1----1--1-| 
||---0---2----0-----2-|----2----0--2--0----0--0-| 
||---2---3----2-----3-|----3----2--3--2----2--2-| 
||o--3---3----3-----3-|----3----3--3--3----3--3-| 
||--------------------|-------------------------| 


      F/C  C     G         C 
   Q   E E  Q  E E   E E E  E  Q   E  S  S 
|--8---8----8----3-|---3----8--8---8--8--8---|| 
|--8--10----8----3-|---3----8--8---8--8--8--o|| 
|--9--10----9----4-|---4----9--9---9--9--9---|| 
|-10--10---10----5-|---5---10-10--10-10-10---|| 
|-10---8---10----5-|---5---10-10--10-10-10--o|| 
|--8---8----8----3-|---3----8--8---8--8--8---|| 
| 
|  Q   E E  Q  E E   E E E  E  Q   E  E 
|--0---1----0----3-|---3----0--0---0--0------|| 
|--1---1----1----3-|---3----1--1---1--1-----o|| 
|--0---2----0----4-|---4----0--0---0--0------|| 
|--2---3----2----5-|---5----2--2---2--2------|| 
|--3---3----3----5-|---5----3--3---3--3-----o|| 
|----------------3-|---3---------------------|| 


      F/C  C     F/C         C  F/CC 
   Q   E E  Q  E  E   E  E E  E  E  E E  S  S 
|--8---8----8-----8-|----8----8--8--8----8--8-| 
|--8--10----8----10-|---10----8-10--8----8--8-| 
|--9--10----9----10-|---10----9-10--9----9--9-| 
|-10--10---10----10-|---10---10-10-10---10-10-| 
|-10---8---10-----8-|----8---10--8-10---10-10-| 
|--8---8----8-----8-|----8----8--8--8----8--8-| 
| 
|  Q   E E  Q  E  E   E  E E  E  E  E E  S  S 
|--0---1----0-----1-|----1----0--1--0----0--0-| 
|--1---1----1-----1-|----1----1--1--1----1--1-| 
|--0---2----0-----2-|----2----0--2--0----0--0-| 
|--2---3----2-----3-|----3----2--3--2----2--2-| 
|--3---3----3-----3-|----3----3--3--3----3--3-| 
|-------------------|-------------------------| 


      C    C     G         C 
   Q   E E  Q  E E   E E E  E  Q   E E 
|--8---8----8----3-|---3----8--8---8----|| 
|--8--10----8----3-|---3----8--8---8----|| 
|--9--10----9----4-|---4----9--9---9----|| 
|-10--10---10----5-|---5---10-10--10----|| 
|-10---8---10----5-|---5---10-10--10----|| 
|--8---8----8----3-|---3----8--8---8----|| 
| 
|  Q   E E  Q  E E   E E E  E  Q   E E 
|--0---1----0----3-|---3----0--0---0----|| 
|--1---1----1----3-|---3----1--1---1----|| 
|--0---2----0----4-|---4----0--0---0----|| 
|--2---3----2----5-|---5----2--2---2----|| 
|--3---3----3----5-|---5----3--3---3----|| 
|----------------3-|---3----------------|| 


   1st & 2nd Verses 
    Eb5                Bb5                Eb5                Bb5 
    E E  E E Q   E E   E E  E E Q   E E   E E  E E Q   E E   E E  E E Q   E E 
||-------------------|------------------|------------------|-------------------| 
||o------------------|------------------|------------------|-------------------| 
||-------------------|------------------|------------------|-------------------| 
||--8-8-10---8--10-8-|------------------|-8-8-10---8--10-8-|-------------------| 
||o-6-6--6---6---6-6-|-8-8-10---8--10-8-|-6-6--6---6---6-6-|-8-8-10---8--10-8--| 
||-------------------|-6-6--6---6---6-6-|------------------|-6-6--6---6---6-6--| 
| 
|   E E  E E Q   E E   E E  E E Q   E E   E E  E E Q   E E   E E  E E Q   E E 
||-------------------|------------------|------------------|-------------------| 
||o------------------|------------------|------------------|-------------------| 
||--8-8--8---8---8-8-|------------------|-8-8--8---8---8-8-|-------------------| 
||--8-8-10---8--10-8-|-8-8--8---8---8-8-|-8-8-10---8--10-8-|-8-8--8---8---8-8--| 
||o-6-6--6---6---6-6-|-8-8-10---8--10-8-|-6-6--6---6---6-6-|-8-8-10---8--10-8--| 
||-------------------|-6-6--6---6---6-6-|------------------|-6-6--6---6---6-6--| 


  Db               Ab               Bb               Gsus4 G 
  E E E E Q  E E   E E E E Q  E E   E E Q  E E E E   E E E E +E  E E S S 
|----------------|----------------|-6-6-6--6-6-6---|-3-3-3-3-(3)-3-3-x-x--|| 
|----------------|----------------|-6-6-6--6-6-6---|-3-3-3-3-(3)-3-3-x-x--|| 
|----------------|----------------|-7-7-7--7-7-7---|-5-5-5-4-(4)-4-4-x-x--|| 
|-6-6-8---6--8-6-|----------------|-8-8-8--8-8-8---|-5-5-5-5-(5)-5-5-x-x--|| 
|-4-4-4---4--4-4-|-6-6-8---6--8-6-|-8-8-8--8-8-8---|-5-5-5-5-(5)-5-5-x-x--|| 
|----------------|-4-4-4---4--4-4-|-6-6-6--6-6-6---|-3-3-3-3-(3)-3-3-x-x--|| 
| 
| E E E E Q  E E   E E E E Q  E E   E E Q  E E E E   E E E E +E  E E S S 
|----------------|----------------|-6-6-6--6-6-6---|-3-3-3-3-(3)-3-3-x-x--|| 
|----------------|----------------|-6-6-6--6-6-6---|-3-3-3-3-(3)-3-3-x-x--|| 
|-6-6-6---6--6-6-|----------------|-7-7-7--7-7-7---|-5-5-5-4-(4)-4-4-x-x--|| 
|-6-6-8---6--8-6-|-6-6-6---6--6-6-|-8-8-8--8-8-8---|-5-5-5-5-(5)-5-5-x-x--|| 
|-4-4-4---4--4-4-|-6-6-8---6--8-6-|-8-8-8--8-8-8---|-5-5-5-5-(5)-5-5-x-x--|| 
|----------------|-4-4-4---4--4-4-|-6-6-6--6-6-6---|-3-3-3-3-(3)-3-3-x-x--|| 


 Chorus 
  C   F/C  C     F/C         C  F/CC 
   Q   E E  Q  E  E   E  E E  E  E  E E  S  S 
|--8---8----8-----8-|----8----8--8--8----8--8-| 
|--8--10----8----10-|---10----8-10--8----8--8-| 
|--9--10----9----10-|---10----9-10--9----9--9-| 
|-10--10---10----10-|---10---10-10-10---10-10-| 
|-10---8---10-----8-|----8---10--8-10---10-10-| 
|--8---8----8-----8-|----8----8--8--8----8--8-| 
| 
|  Q   E E  Q  E  E   E  E E  E  E  E E  S  S 
|--0---1----0-----1-|----1----0--1--0----0--0-| 
|--1---1----1-----1-|----1----1--1--1----1--1-| 
|--0---2----0-----2-|----2----0--2--0----0--0-| 
|--2---3----2-----3-|----3----2--3--2----2--2-| 
|--3---3----3-----3-|----3----3--3--3----3--3-| 
|-------------------|-------------------------| 


      F/C  C     G         C 
   Q   E E  Q  E E   E E E  E  Q   E  S  S 
|--8---8----8----3-|---3----8--8---8--8--8-| 
|--8--10----8----3-|---3----8--8---8--8--8-| 
|--9--10----9----4-|---4----9--9---9--9--9-| 
|-10--10---10----5-|---5---10-10--10-10-10-| 
|-10---8---10----5-|---5---10-10--10-10-10-| 
|--8---8----8----3-|---3----8--8---8--8--8-| 
| 
|  Q   E E  Q  E E   E E E  E  Q   E  E 
|--0---1----0----3-|---3----0--0---0--0----| 
|--1---1----1----3-|---3----1--1---1--1----| 
|--0---2----0----4-|---4----0--0---0--0----| 
|--2---3----2----5-|---5----2--2---2--2----| 
|--3---3----3----5-|---5----3--3---3--3----| 
|----------------3-|---3-------------------| 


  C   F/C  C     F/C         C  F/CC 
   Q   E E  Q  E  E   E  E E  E  E  E E  S  S 
|--8---8----8-----8-|----8----8--8--8----8--8-| 
|--8--10----8----10-|---10----8-10--8----8--8-| 
|--9--10----9----10-|---10----9-10--9----9--9-| 
|-10--10---10----10-|---10---10-10-10---10-10-| 
|-10---8---10-----8-|----8---10--8-10---10-10-| 
|--8---8----8-----8-|----8----8--8--8----8--8-| 
| 
|  Q   E E  Q  E  E   E  E E  E  E  E E  S  S 
|--0---1----0-----1-|----1----0--1--0----0--0-| 
|--1---1----1-----1-|----1----1--1--1----1--1-| 
|--0---2----0-----2-|----2----0--2--0----0--0-| 
|--2---3----2-----3-|----3----2--3--2----2--2-| 
|--3---3----3-----3-|----3----3--3--3----3--3-| 
|-------------------|-------------------------| 


                    1. 
      F/C  C     G         C 
   Q   E E  Q  E E   E E E  E  Q   E E 
|--8---8----8----3-|---3----8--8---8-----|| 
|--8--10----8----3-|---3----8--8---8----o|| 
|--9--10----9----4-|---4----9--9---9-----|| 
|-10--10---10----5-|---5---10-10--10-----|| 
|-10---8---10----5-|---5---10-10--10----o|| 
|--8---8----8----3-|---3----8--8---8-----|| 
| 
|  Q   E E  Q  E E   E E E  E  Q   E E 
|--0---1----0----3-|---3----0--0---0-----|| 
|--1---1----1----3-|---3----1--1---1----o|| 
|--0---2----0----4-|---4----0--0---0-----|| 
|--2---3----2----5-|---5----2--2---2-----|| 
|--3---3----3----5-|---5----3--3---3----o|| 
|----------------3-|---3-----------------|| 


                       Breakdown 
  2. 
    G   C               D 
  E E E  E  Q   E  E     W 
|---3----8--8---8--8-||-10--------| 
|---3----8--8---8--8-||-10--------| 
|---4----9--9---9--9-||-11--------| 
|---5---10-10--10-10-||-12--------| 
|---5---10-10--10-10-||-12--------| 
|---3----8--8---8--8-||-10--------| 
| 
| E E E  E  Q   E  E     W 
|---3----0--0---0--0-||--2--------| 
|---3----1--1---1--1-||--3--------| 
|---4----0--0---0--0-||--2--------| 
|---5----2--2---2--2-||--0--------| 
|---5----3--3---3--3-||-----------| 
|---3----------------||-----------| 


                G          C/G 
   +W           E E Q  E E E E   E E Q  E E E E 
|-(10)--------|-3-3----3---3-3-|-3-3----3---3---| 
|-(10)--------|-3-3----3---5-3-|-3-3----3---3---| 
|-(11)--------|-4-4----4---5-4-|-4-4----4---4---| 
|-(12)--------|-5-5----5---5-5-|-5-5----5---5---| 
|-(12)--------|-5-5----5---3-5-|-5-5----5---5---| 
|-(10)--------|-3-3----3---3-3-|-3-3----3---3---| 
| 
|  +W           E E Q  E E E E   E E Q  E E E E 
|--(2)--------|-3-3----3---0-3-|-3-3----3---3---| 
|--(3)--------|-3-3----3---1-3-|-3-3----3---3---| 
|--(2)--------|-4-4----4---0-4-|-4-4----4---4---| 
|--(0)--------|-5-5----5---2-5-|-5-5----5---5---| 
|-------------|-5-5----5---3-5-|-5-5----5---5---| 
|-------------|-3-3----3-----3-|-3-3----3---3---| 


  D                         G          C/G 
   W           +W           E E Q  E E E E   E E Q  E E E E 
|-10--------|-(10)--------|-3-3----3---3-3-|-3-3----3---3---|| 
|-10--------|-(10)--------|-3-3----3---5-3-|-3-3----3---3---|| 
|-11--------|-(11)--------|-4-4----4---5-4-|-4-4----4---4---|| 
|-12--------|-(12)--------|-5-5----5---5-5-|-5-5----5---5---|| 
|-12--------|-(12)--------|-5-5----5---3-5-|-5-5----5---5---|| 
|-10--------|-(10)--------|-3-3----3---3-3-|-3-3----3---3---|| 
| 
|  W           +W           E E Q  E E E E   E E Q  E E E E 
|--2--------|--(2)--------|-3-3----3---0-3-|-3-3----3---3---|| 
|--3--------|--(3)--------|-3-3----3---1-3-|-3-3----3---3---|| 
|--2--------|--(2)--------|-4-4----4---0-4-|-4-4----4---4---|| 
|--0--------|--(0)--------|-5-5----5---2-5-|-5-5----5---5---|| 
|-----------|-------------|-5-5----5---3-5-|-5-5----5---5---|| 
|-----------|-------------|-3-3----3-----3-|-3-3----3---3---|| 


 Bridge 
  $ 
  Am     G   F              G     Am     G   F 
  H    E E E E   +H     E E E E   H    E E E E   +W 
|-5------3---1-|-(1)----1---3---|-5------3---1-|-(1)----| 
|-5------3---1-|-(1)----1---3---|-5------3---1-|-(1)----| 
|-5------4---2-|-(2)----2---4---|-5------4---2-|-(2)----| 
|-7------5---3-|-(3)----3---5---|-7------5---3-|-(3)----| 
|-7------5---3-|-(3)----3---5---|-7------5---3-|-(3)----| 
|-5------3---1-|-(1)----1---3---|-5------3---1-|-(1)----| 
| 
| H    E E E E   +H     E E E E   H    E E E E   +W 
|-0------3---1-|-(1)----1---3---|-0------3---1-|-(1)----| 
|-1------3---1-|-(1)----1---3---|-1------3---1-|-(1)----| 
|-2------4---2-|-(2)----2---4---|-2------4---2-|-(2)----| 
|-2------5---3-|-(3)----3---5---|-2------5---3-|-(3)----| 
|-0------5---3-|-(3)----3---5---|-0------5---3-|-(3)----| 
|--------3---1-|-(1)----1---3---|--------3---1-|-(1)----| 


                                                     To Coda 
  Am     G   F                Ebsus4  Eb        Gsus4 G 
  H    E E E E   +W           E E E E E E E E   E E E E +H 
|-5------3---1-|-(1)--------|-4-4-4---3-3-3-3-|-3-3-3-3-(3)----|| 
|-5------3---1-|-(1)--------|-4-4-4---4-4-4-4-|-3-3-3-3-(3)----|| 
|-5------4---2-|-(2)--------|-3-3-3---3-3-3-3-|-5-5-5-4-(4)----|| 
|-7------5---3-|-(3)--------|-----------------|-5-5-5-5-(5)----|| 
|-7------5---3-|-(3)--------|-----------------|-5-5-5-5-(5)----|| 
|-5------3---1-|-(1)--------|-----------------|-3-3-3-3-(3)----|| 
| 
| H    E E E E   +W           E E E E E E E E   E E E E +H 
|-0------3---1-|-(1)--------|-4-4-4---3-3-3-3-|-3-3-3-3-(3)----|| 
|-1------3---1-|-(1)--------|-4-4-4---4-4-4-4-|-3-3-3-3-(3)----|| 
|-2------4---2-|-(2)--------|-3-3-3---3-3-3-3-|-5-5-5-4-(4)----|| 
|-2------5---3-|-(3)--------|-----------------|-5-5-5-5-(5)----|| 
|-0------5---3-|-(3)--------|-----------------|-5-5-5-5-(5)----|| 
|--------3---1-|-(1)--------|-----------------|-3-3-3-3-(3)----|| 


 Chorus 
  C   F/C  C     F/C         C  F/CC 
   Q   E E  Q  E  E   E  E E  E  E  E E  S  S 
|--8---8----8-----8-|----8----8--8--8----8--8-| 
|--8--10----8----10-|---10----8-10--8----8--8-| 
|--9--10----9----10-|---10----9-10--9----9--9-| 
|-10--10---10----10-|---10---10-10-10---10-10-| 
|-10---8---10-----8-|----8---10--8-10---10-10-| 
|--8---8----8-----8-|----8----8--8--8----8--8-| 
| 
|  Q   E E  Q  E  E   E  E E  E  E  E E  S  S 
|--0---1----0-----1-|----1----0--1--0----0--0-| 
|--1---1----1-----1-|----1----1--1--1----1--1-| 
|--0---2----0-----2-|----2----0--2--0----0--0-| 
|--2---3----2-----3-|----3----2--3--2----2--2-| 
|--3---3----3-----3-|----3----3--3--3----3--3-| 
|-------------------|-------------------------| 


      F/C  C     G         C 
   Q   E E  Q  E E   E E E  E  Q   E  S  S 
|--8---8----8----3-|---3----8--8---8--8--8-| 
|--8--10----8----3-|---3----8--8---8--8--8-| 
|--9--10----9----4-|---4----9--9---9--9--9-| 
|-10--10---10----5-|---5---10-10--10-10-10-| 
|-10---8---10----5-|---5---10-10--10-10-10-| 
|--8---8----8----3-|---3----8--8---8--8--8-| 
| 
|  Q   E E  Q  E E   E E E  E  Q   E  E 
|--0---1----0----3-|---3----0--0---0--0----| 
|--1---1----1----3-|---3----1--1---1--1----| 
|--0---2----0----4-|---4----0--0---0--0----| 
|--2---3----2----5-|---5----2--2---2--2----| 
|--3---3----3----5-|---5----3--3---3--3----| 
|----------------3-|---3-------------------| 


      F/C  C     F/C         C  F/CC 
   Q   E E  Q  E  E   E  E E  E  E  E E  S  S 
|--8---8----8-----8-|----8----8--8--8----8--8-| 
|--8--10----8----10-|---10----8-10--8----8--8-| 
|--9--10----9----10-|---10----9-10--9----9--9-| 
|-10--10---10----10-|---10---10-10-10---10-10-| 
|-10---8---10-----8-|----8---10--8-10---10-10-| 
|--8---8----8-----8-|----8----8--8--8----8--8-| 
| 
|  Q   E E  Q  E  E   E  E E  E  E  E E  S  S 
|--0---1----0-----1-|----1----0--1--0----0--0-| 
|--1---1----1-----1-|----1----1--1--1----1--1-| 
|--0---2----0-----2-|----2----0--2--0----0--0-| 
|--2---3----2-----3-|----3----2--3--2----2--2-| 
|--3---3----3-----3-|----3----3--3--3----3--3-| 
|-------------------|-------------------------| 


      F/C  C     G         C 
   Q   E E  Q  E E   E E E  E  Q  E  E 
|--8---8----8----3-|---3----8--8-----------|| 
|--8--10----8----3-|---3----8--8----10-----|| 
|--9--10----9----4-|---4----9--9----12b14--|| 
|-10--10---10----5-|---5---10-10-----------|| 
|-10---8---10----5-|---5---10-10-----------|| 
|--8---8----8----3-|---3----8--8-----------|| 
| 
|  Q   E E  Q  E E   E E E  E  Q  E  E 
|--0---1----0----3-|---3----0--0--0--------|| 
|--1---1----1----3-|---3----1--1--1--------|| 
|--0---2----0----4-|---4----0--0--0--------|| 
|--2---3----2----5-|---5----2--2--2--------|| 
|--3---3----3----5-|---5----3--3--3--------|| 
|----------------3-|---3-------------------|| 


 Guitar Solo 
  D5 
   E  E     E  E     E  E     E  S      S 
|-10-------10-------10-------10------------| 
|-10-10----10-10----10-10----10-10-----10--| 
|----12b14----12b14----12b14----12b14==12r-| 
|------------------------------------------| 
|------------------------------------------| 
|------------------------------------------| 
| 
|  E  E     E  E     Q        E  E 
|------------------------------------------| 
|------------------------------------------| 
|--7--7-----7--------7--------7--7---------| 
|--7--7-----9--------7--------9--7---------| 
|--5--5-----5--------5--------5--5---------| 
|------------------------------------------| 


                                             G5 
   E  S      S   E  E     E  E     E  S  S    E     E  E     E  E     E  E     E 
|------------------------10-------10-13-10-|-------10----------------------------| 
|-10-10-----10--10-10----10-10----10-13-10-|-10----10----------------------------| 
|-10-12b14==12r-12-12b14----12b14----------|-12b14----12b14-10-12b14-10-12b14-10-| 
|------------------------------------------|-------------------------------------| 
|------------------------------------------|-------------------------------------| 
|------------------------------------------|-------------------------------------| 
| 
|  E  E          E  E     Q        E  E       E     E  E     E  Q        E     E 
|------------------------------------------|-------------------------------------| 
|------------------------------------------|-------------------------------------| 
|--7--7----------7--------7--------7--7----|-------------------------------------| 
|--7--7----------9--------7--------9--7----|--5-----5--5--------5--------5-----5-| 
|--5--5----------5--------5--------5--5----|--5-----5--7--------5--------7-----5-| 
|------------------------------------------|--3-----3--3--------3--------3-----3-| 


                              D5 
   ~~ 
   Q    E  E  E  E  E  E       E  E  E     E  E  E     E  E 
|---------------------------|-------------------------------| 
|------10----10----10-10----|-10-10-10----10-10-10----10-10-| 
|------10----10----10-12b14-|-12-10-12b14-12-10-12b14-12-10-| 
|-12------12----12----------|-------------------------------| 
|---------------------------|-------------------------------| 
|---------------------------|-------------------------------| 
| 
|  E E  E  E  Q     E  E       E  E  E     E  Q        E  E 
|---------------------------|-------------------------------| 
|---------------------------|-------------------------------| 
|---------------------------|--7--7--7--------7--------7--7-| 
|--5-5--5-----5-----5--5----|--7--7--9--------7--------9--7-| 
|--5-5--7-----5-----7--5----|--5--5--5--------5--------5--5-| 
|--3-3--3-----3-----3--3----|-------------------------------| 


   E     E  E  E     E  E  E  E 
|-------------------------------| 
|-10----10-10-10----10-10-10-10-| 
|-12b14-12-10-12b14-12-10-12-10-| 
|-------------------------------| 
|-------------------------------| 
|-------------------------------| 
| 
|  E     E  E  E     Q     E  E 
|-------------------------------| 
|-------------------------------| 
|--7-----7--7--------7-----7--7-| 
|--7-----7--9--------7-----9--7-| 
|--5-----5--5--------5-----5--5-| 
|-------------------------------| 


  G5 
  E  Q       S      S   E     Q       E        +E    Q       E     E  E     S  S  S  S 
|-------------------------------------------|---------------------10-------10-10-10-10-| 
|---10------10-----10--10----10------10-----|-(10)--10------10----10-10----10-10-10-10-| 
|---12b14---12b14==12r-12b14-12b14---12b14==|=(12)r-12b14---12b14----12b14-------------| 
|-------------------------------------------|------------------------------------------| 
|-------------------------------------------|------------------------------------------| 
|-------------------------------------------|------------------------------------------| 
| 
| E  E    E  E          Q          E  E         E    E    E  E     Q        E     E 
|-------------------------------------------|------------------------------------------| 
|-------------------------------------------|------------------------------------------| 
|-------------------------------------------|------------------------------------------| 
|-5--5----5-------------5----------5--5-----|---5----5----5--------5--------5-----5----| 
|-5--5----7-------------5----------7--5-----|---5----5----7--------5--------7-----5----| 
|-3--3----3-------------3----------3--3-----|---3----3----3--------3--------3-----3----| 


  D5 
   E  S  S  S  S  S      E     S  S S S S  S      S 
|-10-10-10-10-10-10-----10----10-10-x-x-x-10-----10---| 
|-10-10-10-10-10-10-----10----10-10-x-x-x-10-----10---| 
|----------------12b14==12r---------------12b14==12r--| 
|-----------------------------------------------------| 
|-----------------------------------------------------| 
|-----------------------------------------------------| 
| 
|  E  E     E     E         Q         E    E 
|-----------------------------------------------------| 
|-----------------------------------------------------| 
|--7--7-----7---------------7---------7----7----------| 
|--7--7-----9---------------7---------9----7----------| 
|--5--5-----5---------------5---------5----5----------| 
|-----------------------------------------------------| 


   E  S  S  S  S  S      E     S  S S S S  S      S 
|-10-10-10-10-10-10-----10----10-10-x-x-x-10-----10--| 
|-10-10-10-10-10-10-----10----10-10-x-x-x-10-----10--| 
|----------------12b14==12r---------------12b14==12r-| 
|----------------------------------------------------| 
|----------------------------------------------------| 
|----------------------------------------------------| 
| 
|  E  E     E     E         Q         E    E 
|----------------------------------------------------| 
|----------------------------------------------------| 
|--7--7-----7---------------7---------7----7---------| 
|--7--7-----9---------------7---------9----7---------| 
|--5--5-----5---------------5---------5----5---------| 
|----------------------------------------------------| 


  G5 
                                          ~ 
  E   E E     E E     E   E E   S S E E E Q  E     E 
|---------------------------3-|---------------------------| 
|-5b6-5-------------------3---|-6p3---3-------------------| 
|-5b7-5-3b3.5---3b3.5-5b7-----|-----5---3----3b3.5-3b3.5--| 
|-------------5---------------|-----------5---------------| 
|-----------------------------|---------------------------| 
|-----------------------------|---------------------------| 
| 
| E   E E     E Q         E E   E   E E E Q  E     E 
|-----------------------------|---------------------------| 
|-----------------------------|---------------------------| 
|-----------------------------|---------------------------| 
|-5---5-5-------5---------5-5-|-5---5-5---5--5-----5------| 
|-5---5-5-------5---------5-5-|-5---5-5---5--5-----5------| 
|-3---3-3-------3---------3-3-|-3---3-3---3--3-----3------| 


  D5 
  E  E     E  E     E  E     E  E       E  E  E  E  E  E  E  E 
|------------------------------------|-------------------------| 
|---------13-------12-------11-------|-10----------------------| 
|---15b17----14b16----13b15----12b14-|----10-------------------| 
|------------------------------------|-------12-10----10-------| 
|------------------------------------|-------------12----12-11-| 
|------------------------------------|-------------------------| 
| 
| E  E     E  E     Q        E  E       E  E  E  E  Q     E  E 
|------------------------------------|-------------------------| 
|------------------------------------|-------------------------| 
|-7--7-----7--------7--------7--7----|--7--7--7-----7-----7--7-| 
|-7--7-----7--------7--------7--7----|--7--7--7-----7-----7--7-| 
|-5--5-----5--------5--------5--5----|--5--5--5-----5-----5--5-| 
|------------------------------------|-------------------------| 


                        D.S. al Coda 
  G5 
   ~~~~~~~~~~~~~~~~~~~~~~~~~~~~~~~~~ 
   Q   Q   Q  Q     Q   Q   Q  +Q 
|-----------------|------------------|| 
|-----------------|------------------|| 
|-----------------|------------------|| 
|-----------------|------------------|| 
|-10---8---7--6---|-5---3---2--(2)\--|| 
|-----------------|------------------|| 
| 
|  E E E E Q  E E   E E E E Q   Q 
|-----------------|------------------|| 
|-----------------|------------------|| 
|-----------------|------------------|| 
|--5-5-5---5--5-5-|-5-5-5---5---5----|| 
|--5-5-5---5--5-5-|-5-5-5---5---5----|| 
|--3-3-3---3--3-3-|-3-3-3---3---3----|| 


   Chorus 
    & 
    C   F/C  C     F/C         C  C  C 
     Q   E E  Q  E  E   E  E E  E  E  E E  S  S 
||---8---8----8-----8-|----8----8--8--8----8--8-| 
||o--8--10----8----10-|---10----8-10--8----8--8-| 
||---9--10----9----10-|---10----9-10--9----9--9-| 
||--10--10---10----10-|---10---10-10-10---10-10-| 
||o-10---8---10-----8-|----8---10--8-10---10-10-| 
||---8---8----8-----8-|----8----8--8--8----8--8-| 
| 
|    Q   E E  Q  E  E   E  E E  E  E  E E  S  S 
||---0---1----0-----1-|----1----0--1--0----0--0-| 
||o--1---1----1-----1-|----1----1--1--1----1--1-| 
||---0---2----0-----2-|----2----0--2--0----0--0-| 
||---2---3----2-----3-|----3----2--3--2----2--2-| 
||o--3---3----3-----3-|----3----3--3--3----3--3-| 
||--------------------|-------------------------| 


      F/C  C     G         C 
   Q   E E  Q  E E   E E E  E  Q   E  S  S 
|--8---8----8----3-|---3----8--8---8--8--8--| 
|--8--10----8----3-|---3----8--8---8--8--8--| 
|--9--10----9----4-|---4----9--9---9--9--9--| 
|-10--10---10----5-|---5---10-10--10-10-10--| 
|-10---8---10----5-|---5---10-10--10-10-10--| 
|--8---8----8----3-|---3----8--8---8--8--8--| 
| 
|  Q   E E  Q  E E   E E E  E  Q   E  E 
|--0---1----0----3-|---3----0--0---0--0-----| 
|--1---1----1----3-|---3----1--1---1--1-----| 
|--0---2----0----4-|---4----0--0---0--0-----| 
|--2---3----2----5-|---5----2--2---2--2-----| 
|--3---3----3----5-|---5----3--3---3--3-----| 
|----------------3-|---3--------------------| 


                 F/C         C  F/CC 
   Q   E E  Q  E  E   E  E E  E  E  E E  S  S 
|--8---8----8-----8-|----8----8--8--8----8--8-| 
|--8--10----8----10-|---10----8-10--8----8--8-| 
|--9--10----9----10-|---10----9-10--9----9--9-| 
|-10--10---10----10-|---10---10-10-10---10-10-| 
|-10---8---10-----8-|----8---10--8-10---10-10-| 
|--8---8----8-----8-|----8----8--8--8----8--8-| 
| 
|  Q   E E  Q  E  E   E  E E  E  E  E E  S  S 
|--0---1----0-----1-|----1----0--1--0----0--0-| 
|--1---1----1-----1-|----1----1--1--1----1--1-| 
|--0---2----0-----2-|----2----0--2--0----0--0-| 
|--2---3----2-----3-|----3----2--3--2----2--2-| 
|--3---3----3-----3-|----3----3--3--3----3--3-| 
|-------------------|-------------------------| 


 1.                                       2. 
      F/C  C     G         C               C   F/C  C     G 
   Q   E E  Q  E E   E E E  E  Q   E E      Q   E E  Q  E E 
|--8---8----8----3-|---3----8--8---8----||--8---8----8----3---|| 
|--8--10----8----3-|---3----8--8---8---o||--8--10----8----3---|| 
|--9--10----9----4-|---4----9--9---9----||--9--10----9----4---|| 
|-10--10---10----5-|---5---10-10--10----||-10--10---10----5---|| 
|-10---8---10----5-|---5---10-10--10---o||-10---8---10----5---|| 
|--8---8----8----3-|---3----8--8---8----||--8---8----8----3---|| 
| 
|  Q   E E  Q  E E   E E E  E  Q   E E      Q   E E  Q  E E 
|--0---1----0----3-|---3----0--0---0----||--0---1----0----3---|| 
|--1---1----1----3-|---3----1--1---1---o||--1---1----1----3---|| 
|--0---2----0----4-|---4----0--0---0----||--0---2----0----4---|| 
|--2---3----2----5-|---5----2--2---2----||--2---3----2----5---|| 
|--3---3----3----5-|---5----3--3---3---o||--3---3----3----5---|| 
|----------------3-|---3----------------||----------------3---|| 


 Outro 
    G   C                               Bb  C 
 2/4        4/4 
  E E E  E    W           +H.       +E  E    W           Q   Q  H 
|---3----8-|--8--------|--(8)-------(8)-6-|--8--------|--8\----------*| 
|---3----8-|--8--------|--(8)-------(8)-6-|--8--------|--8\----------*| 
|---4----9-|--9--------|--(9)-------(9)-7-|--9--------|--9\----------*| 
|---5---10-|-10--------|-(10)------(10)-8-|-10--------|-10\----------*| 
|---5---10-|-10--------|-(10)------(10)-8-|-10--------|-10\----------*| 
|---3----8-|--8--------|--(8)-------(8)-6-|--8--------|--8\----------*| 
| 
| E E E  E    W           +H.       +E  E    W           q   Q  H 
|---3----0-|--0--------|--(0)-------(0)-1-|--0--------|--0-----------*| 
|---3----1-|--1--------|--(1)-------(1)-3-|--1--------|--1-----------*| 
|---4----0-|--0--------|--(0)-------(0)-3-|--0--------|--0-----------*| 
|---5----2-|--2--------|--(2)-------(2)-3-|--2--------|--2-----------*| 
|---5----3-|--3--------|--(3)-------(3)-1-|--3--------|--3-----------*| 
|---3------|-----------|------------------|-----------|--------------*|  
	  

No existe una video leccione para esta canción

request
Aumentar uno tonoAumentar uno tono
Aumentar uno semi-tonoAumentar uno semi-tono
Disminuir uno semi-tonoDisminuir uno semi-tono
Disminuir uno tonoDisminuir uno semi-tono
LosAcordes
Buscar
auto avanzar rasgueos aumentar disminuir cambiar color esconder acordes gráficos
losacordes exhibir acordes losacordes youTube video losacordes ocultar tabs losacordes ir hacia arriba losacordes