White Lies

Início > White Lies > acordes

There Goes Our Love Again Tablatura

White Lies

Dificultad:Ningún gradoNingún grado

jov-correa

tuner correct add songbook print version text version salvar en e-mail
acordesukuleletablaturabajobateríaarmónicaflautacavacopiano Guitar Pro
acordes

There Goes Our Love Again

	  

I only tabbed the rythmm guitar section, im not sure enough about the lead guitar. 


Follow the song 

Intro/ Verse (Same for both verses) 
e|---------------------------------------------------------------------------| 
B|-----------2-----------------------------2---------------------------------| 
G|-----------2-------------------1---------2---------------------4-----------| 
D|----4------2----------4---------2--------2---------4-----------4-----------| 
A|----4-----------------4---------2------------------4--------2--------------| 
E|-2-----------------2----------------------------2--------------------------| 

e|---------------------------------------------------------------------------| 
B|-2------------------2-------2----------------------------------------------| 
G|-2----------4-------2-------2----------------------------------------------| 
D|-2----------4-------2-------2----------------------------------------------| 
A|--------2------------------------------------------------------------------| 
E|---------------------------------------------------------------------------| 


Chorus 
e|---------------------------------------------------------------------------| 
B|------------------------------------2-------2------------------------------| 
G|-1-------------6-----------4--------2-------2------------------------------| 
D|---2-----------6-----------4--------2-------2------------------------------| 
A|---2--------4-----------2--------------------------------------------------| 
E|---------------------------------------------------------------------------| 


Chorus 2 (x2) 
e|---------------------------------------------------------------------------| 
B|------------------------------------2---------------2----------------------| 
G|-1-------------6-----------4--------2---------4-----2----------------------| 
D|---2-----------6-----------4--------2---------4-----2----------------------| 
A|---2--------4-----------2-------------------2------------------------------| 
E|---------------------------------------------------------------------------| 


Bridge /outro 
e|---------------------------------------------------------------------------| 
B|---------------------------------------------------------------------------| 
G|--1-----------6------1---------6-------------------------------------------| 
D|---2----------6-------2--------6-------------------------------------------| 
A|---2-------4----------2-----4----------------------------------------------| 
E|---------------------------------------------------------------------------| 
	  

No existe una video leccione para esta canción

request
LosAcordes
Buscar
auto avanzar rasgueos aumentar disminuir cambiar color esconder acordes gráficos
losacordes exhibir acordes losacordes youTube video losacordes ocultar tabs losacordes ir hacia arriba losacordes