Wednesday 13

Início > Wednesday ... > acordes

With Friends Like These Tablatura

Wednesday 13

Dificultad:Ningún gradoNingún grado

adalgomes

tuner correct add songbook print version text version salvar en e-mail
acordesukuleletablaturabajobateríaarmónicaflautacavacopiano Guitar Pro
acordes

With Friends Like These

	  

INTRO 
First Time play only rhytm Guitar, then play both 

D------------------------------------------| 
A------------------------------------------| 
F------------------------------------------| 2x 
C------------------------------------------| 
G--33-6-88--33-6-88--33-6-88-8-6--3\-------| 
C--33-6-88--33-6-88--33-6-88-8-6--3\-------| 

Maybe there is a Solo Guitar 
After first sequence 
D-----------------------------------------| 
A-----------------------------------------| 
F-----------------------------------------|  
C--33-6-88--33-6-88--33-6-88-8-6--3\------| 
G-----------------------------------------| 
C-----------------------------------------| 

Pre-Verse 
First Time 

D------------------------------| 
A------------------------------| 
F------------------------------|  
C------------------------------| 
G--/33-6-88--33-6-88--3\-------| 
C--/33-6-88--33-6-88--3\-------| 

Second Time 

D--------------------------------| 
A--------------------------------| 
F--------------------------------|  
C--------------------------------| 
G--/33-6-88--33-6-88---------| 
C--/33-6-88--33-6-88---------| 

Verse 

D--------------------------------------------------------| 
A--------------------------------------------------------| 
F--------------------------------------------------------|  
C--------------------------------------------------------| 
G--5555-8888--33-6-88--33-6-88-5555-8888-6666-8888-------| 
C--5555-8888--33-6-88--33-6-88-5555-8888-6666-8888-------| 

Chorus 

D-----------------------------------------| 
A-----------------------------------------| 
F-----------------------------------------| 2x 
C-----------------------------------------| 
G--33-6-88--33-6-88--33-6-88-8-6--3-------| 
C--33-6-88--33-6-88--33-6-88-8-6--3-------| 

INTRO 
First Time play only rhytm Guitar, then play both 

D------------------------------------------| 
A------------------------------------------| 
F------------------------------------------| 2x 
C------------------------------------------| 
G--33-6-88--33-6-88--33-6-88-8-6--3\-------| 
C--33-6-88--33-6-88--33-6-88-8-6--3\-------| 

Pre-Verse 
First Time 

D----------------------------------| 
A----------------------------------| 
F----------------------------------|  
C----------------------------------| 
G--/33-6-88--33-6-88--3\-------| 
C--/33-6-88--33-6-88--3\-------| 

Second Time 

D----------------------------| 
A----------------------------| 
F----------------------------|  
C----------------------------| 
G--/33-6-88--33-6-88---------| 
C--/33-6-88--33-6-88---------| 

Verse 

D--------------------------------------------------------| 
A--------------------------------------------------------| 
F--------------------------------------------------------|  
C--------------------------------------------------------| 
G--5555-8888--33-6-88--33-6-88-5555-8888-6666-8888-------| 
C--5555-8888--33-6-88--33-6-88-5555-8888-6666-8888-------| 

Chorus 

D-----------------------------------------| 
A-----------------------------------------| 
F-----------------------------------------| 2x 
C-----------------------------------------| 
G--33-6-88--33-6-88--33-6-88-8-6--3-------| 
C--33-6-88--33-6-88--33-6-88-8-6--3-------| 

Pre Solo 

D------------------------------------------------------------------| 
A------------------------------------------------------------------| 
F------------------------------------------------------------------|  
C------------------------------------------------------------------| 
G-55555-88888---/33-6-88--33-6-88--55555-88888--1010101010101010---|  
C-55555-88888---/33-6-88--33-6-88--55555-88888--1010101010101010---| 

Solo 
Lead Guitar 
D----------------------------------------------------------------| 
A----------------------------------------------------------------| 
F--/10~-13~-15~--/10~-13~-15~--/10~-13~-15~-15b131513-10~--------|  
C----------------------------------------------------------------| 
G----------------------------------------------------------------| 
C----------------------------------------------------------------| 

D----------------------------------------------------------------| 
A----------------------------------------------------------------| 
F--/10~-13~-15~--/10~-13~-15~--/10~-13~-15~-15b-13-15-13-10~-----|  
C----------------------------------------------------------------| 
G----------------------------------------------------------------| 
C----------------------------------------------------------------| 

Rhytm Guitar 

D-----------------------------------------| 
A-----------------------------------------| 
F-----------------------------------------| 2x 
C-----------------------------------------| 
G--33-6-88--33-6-88--33-6-88-8-6--3-------| 
C--33-6-88--33-6-88--33-6-88-8-6--3-------| 

Verse 

D--------------------------------------------------------| 
A--------------------------------------------------------| 
F--------------------------------------------------------|  
C--------------------------------------------------------| 
G--5555-8888--33-6-88--33-6-88-5555-8888-6666-8888-------| 
C--5555-8888--33-6-88--33-6-88-5555-8888-6666-8888-------| 

Chorus 

D-----------------------------------------| 
A-----------------------------------------| 
F-----------------------------------------| 2x 
C-----------------------------------------| 
G--33-6-88--33-6-88--33-6-88-8-6--3-------| 
C--33-6-88--33-6-88--33-6-88-8-6--3-------| 

Outro 

D-----------------------------------------| 
A-----------------------------------------| 
F-----------------------------------------| 2x 
C-----------------------------------------| 
G--33-6-88--33-6-88--33-6-88-8-6--3-------| 
C--33-6-88--33-6-88--33-6-88-8-6--3-------| 

D-------------------------| 
A-------------------------| 
F-------------------------|  
C-------------------------| 
G--11-10-9-8-7-6-------6\-| 
C--11-10-9-8-7-6-------6\-| 

Solo Part 

D---------------------------| 
A--14-13-12-11-10-9-6~---6\-| 
F---------------------------|  
C---------------------------| 
G---------------------------| 
C---------------------------|  
	  

No existe una video leccione para esta canción

request
LosAcordes
Buscar
auto avanzar rasgueos aumentar disminuir cambiar color esconder acordes gráficos
losacordes exhibir acordes losacordes youTube video losacordes ocultar tabs losacordes ir hacia arriba losacordes