Wednesday 13

Início > Wednesday ... > acordes

They Always Go For The Butcher Knife Tablatura

Wednesday 13

Dificultad:Ningún gradoNingún grado

victborges

tuner correct add songbook print version text version salvar en e-mail
acordesukuleletablaturabajobateríaarmónicaflautacavacopiano Guitar Pro
acordes

They Always Go For The Butcher Knife

	  Intro 


D--------------------------------------------| 
A--------------------------------------------| 
F--------------------------------------------| 
C--10--10--9-10-9-7--7--5-7-5-3---3/5--3-3---| 
G--10--10--9-10-9-7--7--5-7-5-3---3/5--3-3---| 
C--10--10--9-10-9-7--7--5-7-5-3---3/5--3-3---| (x2) 

Verse 

D---------------------------------------------------------------------------------------| 
A---------------------------------------------------------------------------------------| 
F--5---5-5-5-5-5--555--5-5-5-5-5--555--5-5-5-5-5--555--5-5-5-5-5--555--5-5-5-5-5--555---| 
C--5---5-5-5-5-5--555--5-5-5-5-5--555--5-5-5-5-5--555--5-5-5-5-5--555--5-5-5-5-5--555---| 
G--3---3-3-3-3-3--333--3-3-3-3-3--333--3-3-3-3-3--333--3-3-3-3-3--333--3-3-3-3-3--333---| 
C---------------------------------------------------------------------------------------| 
       . . . . .       . . . . .       . . . . .       . . . . .       . . . . . 

D-----------------------------------| 
A-----------------------------------| 
F--5-5-5-5-5------------------------| 
C--5-5-5-5-5--3/5--3-3---3/5--3-3---| 
G--3-3-3-3-3--3/5--3-3---3/5--3-3---| 
C-------------3/5--3-3---3/5--3-3---| (x2) 
   . . . . . 

Pre-Chorus 

D--------------------------------------| 
A--------------------------------------| 
F--------------------------------------| 
C--3/5-5---5/7-7---3/5-3-3---3/5-3-3---| 
G--3/5-5---5/7-7---3/5-3-3---3/5-3-3---| 
C--3/5-5---5/7-7---3/5-3-3---3/5-3-3---| 


D------------------------------------| 
A------------------------------------| 
F------------------------------------| 
C--3/5-5---5/7-7---3/5-3-3---3/5-5---| 
G--3/5-5---5/7-7---3/5-3-3---3/5-5---| 
C--3/5-5---5/7-7---3/5-3-3---3/5-5---| 

Chorus 

D--------------------------------------------| 
A--------------------------------------------| 
F--------------------------------------------| 
C--10--10--9-10-9-7--7--5-7-5-3---3/5--3-3---| 
G--10--10--9-10-9-7--7--5-7-5-3---3/5--3-3---| 
C--10--10--9-10-9-7--7--5-7-5-3---3/5--3-3---| (x6) 

Outro 

D---------------------------------------------------------------------------------------| 
A---------------------------------------------------------------------------------------| 
F--5---5-5-5-5-5--555--5-5-5-5-5--555--5-5-5-5-5--555--5-5-5-5-5--555--5-5-5-5-5--555---| 
C--5---5-5-5-5-5--555--5-5-5-5-5--555--5-5-5-5-5--555--5-5-5-5-5--555--5-5-5-5-5--555---| 
G--3---3-3-3-3-3--333--3-3-3-3-3--333--3-3-3-3-3--333--3-3-3-3-3--333--3-3-3-3-3--333---| 
C---------------------------------------------------------------------------------------| 
       . . . . .       . . . . .       . . . . .       . . . . .       . . . . . 
	  

No existe una video leccione para esta canción

request
LosAcordes
Buscar
auto avanzar rasgueos aumentar disminuir cambiar color esconder acordes gráficos
losacordes exhibir acordes losacordes youTube video losacordes ocultar tabs losacordes ir hacia arriba losacordes