Wednesday 13

Início > Wednesday ... > acordes

Nowhere (acoustic) Tablatura

Wednesday 13

Dificultad:Ningún gradoNingún grado

hugo_rodrigues

tuner correct add songbook print version text version salvar en e-mail
acordesukuleletablaturabajobateríaarmónicaflautacavacopiano Guitar Pro
acordes

Nowhere (acoustic)

	  


Intro 


D---------------------------------------------------------------------------------------------------| 
A---------------------------------------------------------------------------------------------------| 
F---7-------------------------------5-------------------------------4-------------------------------| 
C---7-------------------------------5-------------------------------4-------------------------------| 
G---5-5-5-5-5-5-5-5-5-5-5-5-5-5-5-5-3-3-3-3-3-3-3-3-3-3-3-3-3-3-3-3-2-2-2-2-2-2-2-2-2-2-2-2-2-2-2-2-| 
C---------------------------------------------------------------------------------------------------| 

                             I pull 

D------------------------------------| 
A------------------------------------| 
F---7--------------------------------| 
C---7--------------------------------| 
G---5-5-5-5-5-5-5-5-5-5-5-5-5-5-5-5--| 
C------------------------------------| 

Verse 

the switch,           all systems down 

D---------------------------------------------------------------------------------------------------| 
A---------------------------------------------------------------------------------------------------| 
F---7-------------------------------5-------------------------------4-------------------------------| 
C---7-------------------------------5-------------------------------4-------------------------------| 
G---5-5-5-5-5-5-5-5-5-5-5-5-5-5-5-5-3-3-3-3-3-3-3-3-3-3-3-3-3-3-3-3-2-2-2-2-2-2-2-2-2-2-2-2-2-2-2-2-| 
C---------------------------------------------------------------------------------------------------| 

                        Reaching for 

D------------------------------------| 
A------------------------------------| 
F---7--------------------------------| 
C---7--------------------------------| 
G---5-5-5-5-5-5-5-5-5-5-5-5-5-5-5-5--| 
C------------------------------------| 

  stars        you know you can't get far 

D---------------------------------------------------------------------------------------------------| 
A---------------------------------------------------------------------------------------------------| 
F---7-------------------------------5-------------------------------4-------------------------------| 
C---7-------------------------------5-------------------------------4-------------------------------| 
G---5-5-5-5-5-5-5-5-5-5-5-5-5-5-5-5-3-3-3-3-3-3-3-3-3-3-3-3-3-3-3-3-2-2-2-2-2-2-2-2-2-2-2-2-2-2-2-2-| 
C---------------------------------------------------------------------------------------------------| 


D------------------------------------| 
A------------------------------------| 
F---7--------------------------------| 
C---7--------------------------------| 
G---5-5-5-5-5-5-5-5-5-5-5-5-5-5-5-5--| 
C------------------------------------| 


Pre-Chorus 

  Bite the hand that's... 

D-------------------------------------------------------------| 
A-----------2--2-2-----------------------2--2-2---------------| 
F---4--4-4--2--2-2---------------4--4-4--2--2-2---------------| 
C---4--4-4--0--0-0--5--5-5--5-5--4--4-4--0--0-0--5--5-5--5-5--| 
G---2--2-2----------5--5-5--5-5--2--2-2----------5--5-5--5-5--| 
C-------------------5--5-5--5-5------------------5--5-5--5-5--| 

D------------------------------------------------------------------| 
A-----------2--2-2-------------------------------------------------| 
F---4--4-4--2--2-2-------------------------------------------------| 
C---4--4-4--0--0-0--5--5-5--5-5--7--7-7-7-7-7-7-7-7-7-7-7-7-7-7-7--| 
G---2--2-2----------5--5-5--5-5--7--7-7-7-7-7-7-7-7-7-7-7-7-7-7-7--| 
C-------------------5--5-5--5-5--7--7-7-7-7-7-7-7-7-7-7-7-7-7-7-7--| 


Chorus 


D------------------------------------------------------------------------------| 
A------------------------------------------------------------------------------| 
F---7---7--7--7--7--7--7--7--7--7--7--7---5---5--5--5--5--5--5--5--5--5--5--5--| 
C---7---7--7--7--7--7--7--7--7--7--7--7---5---5--5--5--5--5--5--5--5--5--5--5--| 
G---5---5--5--5--5--5--5--5--5--5--5--5---3---3--3--3--3--3--3--3--3--3--3--3--| 
C------------------------------------------------------------------------------| 


D------------------------------------------------------------------------------| 
A------------------------------------------------------------------------------| 
F---4---4--4--4--4--4--4--4--4--4--4--4---7---7--7--7--7--7--7--7--7--7--7--7--| 
C---4---4--4--4--4--4--4--4--4--4--4--4---7---7--7--7--7--7--7--7--7--7--7--7--| 
G---2---2--2--2--2--2--2--2--2--2--2--2---5---5--5--5--5--5--5--5--5--5--5--5--| 
C------------------------------------------------------------------------------| (x2) 


Verse 

  You,            in your suit and tie 

D---------------------------------------------------------------------------------------------------| 
A---------------------------------------------------------------------------------------------------| 
F---7-------------------------------5-------------------------------4-------------------------------| 
C---7-------------------------------5-------------------------------4-------------------------------| 
G---5-5-5-5-5-5-5-5-5-5-5-5-5-5-5-5-3-3-3-3-3-3-3-3-3-3-3-3-3-3-3-3-2-2-2-2-2-2-2-2-2-2-2-2-2-2-2-2-| 
C---------------------------------------------------------------------------------------------------| 

D-----------------------------------| 
A-----------------------------------| 
F---7-------------------------------| 
C---7-------------------------------| 
G---5-5-5-5-5-5-5-5-5-5-5-5-5-5-5-5-| 
C-----------------------------------| (x2) 


Pre-Chorus 

  Bite the hand that's... 

D-------------------------------------------------------------| 
A-----------2--2-2-----------------------2--2-2---------------| 
F---4--4-4--2--2-2---------------4--4-4--2--2-2---------------| 
C---4--4-4--0--0-0--5--5-5--5-5--4--4-4--0--0-0--5--5-5--5-5--| 
G---2--2-2----------5--5-5--5-5--2--2-2----------5--5-5--5-5--| 
C-------------------5--5-5--5-5------------------5--5-5--5-5--| 

D------------------------------------------------------------------| 
A-----------2--2-2-------------------------------------------------| 
F---4--4-4--2--2-2-------------------------------------------------| 
C---4--4-4--0--0-0--5--5-5--5-5--7--7-7-7-7-7-7-7-7-7-7-7-7-7-7-7--| 
G---2--2-2----------5--5-5--5-5--7--7-7-7-7-7-7-7-7-7-7-7-7-7-7-7--| 
C-------------------5--5-5--5-5--7--7-7-7-7-7-7-7-7-7-7-7-7-7-7-7--| 


Chorus 


D------------------------------------------------------------------------------| 
A------------------------------------------------------------------------------| 
F---7---7--7--7--7--7--7--7--7--7--7--7---5---5--5--5--5--5--5--5--5--5--5--5--| 
C---7---7--7--7--7--7--7--7--7--7--7--7---5---5--5--5--5--5--5--5--5--5--5--5--| 
G---5---5--5--5--5--5--5--5--5--5--5--5---3---3--3--3--3--3--3--3--3--3--3--3--| 
C------------------------------------------------------------------------------| 


D------------------------------------------------------------------------------| 
A------------------------------------------------------------------------------| 
F---4---4--4--4--4--4--4--4--4--4--4--4---7---7--7--7--7--7--7--7--7--7--7--7--| 
C---4---4--4--4--4--4--4--4--4--4--4--4---7---7--7--7--7--7--7--7--7--7--7--7--| 
G---2---2--2--2--2--2--2--2--2--2--2--2---5---5--5--5--5--5--5--5--5--5--5--5--| 
C------------------------------------------------------------------------------| (x2) 


Bridge 


D------------------------------------------------------------------------------| 
A------------------------------------------------------------------------------| 
F---7---7--7--7--7--7--7--7--7--7--7--7---5---5--5--5--5--5--5--5--5--5--5--5--| 
C---7---7--7--7--7--7--7--7--7--7--7--7---5---5--5--5--5--5--5--5--5--5--5--5--| 
G---5---5--5--5--5--5--5--5--5--5--5--5---3---3--3--3--3--3--3--3--3--3--3--3--| 
C------------------------------------------------------------------------------| 


D------------------------------------------------------------------------------| 
A------------------------------------------------------------------------------| 
F---4---4--4--4--4--4--4--4--4--4--4--4---7---7--7--7--7--7--7--7--7--7--7--7--| 
C---4---4--4--4--4--4--4--4--4--4--4--4---7---7--7--7--7--7--7--7--7--7--7--7--| 
G---2---2--2--2--2--2--2--2--2--2--2--2---5---5--5--5--5--5--5--5--5--5--5--5--| 
C------------------------------------------------------------------------------| 


D---------------------------------------------------------------------------------------------------| 
A---------------------------------------------------------------------------------------------------| 
F---7-------------------------------5-------------------------------4-------------------------------| 
C---7-------------------------------5-------------------------------4-------------------------------| 
G---5-5-5-5-5-5-5-5-5-5-5-5-5-5-5-5-3-3-3-3-3-3-3-3-3-3-3-3-3-3-3-3-2-2-2-2-2-2-2-2-2-2-2-2-2-2-2-2-| 
C---------------------------------------------------------------------------------------------------| 


D------------------------------------| 
A------------------------------------| 
F---7--------------------------------| 
C---7--------------------------------| 
G---5-5-5-5-5-5-5-5-5-5-5-5-5-5-5-5--| 
C------------------------------------| 


Pre-Chorus 


  Bite the hand that's... 

D-------------------------------------------------------------| 
A-----------2--2-2-----------------------2--2-2---------------| 
F---4--4-4--2--2-2---------------4--4-4--2--2-2---------------| 
C---4--4-4--0--0-0--5--5-5--5-5--4--4-4--0--0-0--5--5-5--5-5--| 
G---2--2-2----------5--5-5--5-5--2--2-2----------5--5-5--5-5--| 
C-------------------5--5-5--5-5------------------5--5-5--5-5--| 

D-------------------------------------------------------------------------------------------------| 
A-----------2--2-2--------------------------------------------------------------------------------| 
F---4--4-4--2--2-2--------------------------------------------------------------------------------| 
C---4--4-4--0--0-0--5--5-5--5-5--7--7-7-7-7-7-7-7-7-7-7-7-7-7-7-7--7-7-7-7-7-7-7-7-7-7-7-7-7-7-7--| 
G---2--2-2----------5--5-5--5-5--7--7-7-7-7-7-7-7-7-7-7-7-7-7-7-7--7-7-7-7-7-7-7-7-7-7-7-7-7-7-7--| 
C-------------------5--5-5--5-5--7--7-7-7-7-7-7-7-7-7-7-7-7-7-7-7--7-7-7-7-7-7-7-7-7-7-7-7-7-7-7--| 


Chorus 


D------------------------------------------------------------------------------| 
A------------------------------------------------------------------------------| 
F---7---7--7--7--7--7--7--7--7--7--7--7---5---5--5--5--5--5--5--5--5--5--5--5--| 
C---7---7--7--7--7--7--7--7--7--7--7--7---5---5--5--5--5--5--5--5--5--5--5--5--| 
G---5---5--5--5--5--5--5--5--5--5--5--5---3---3--3--3--3--3--3--3--3--3--3--3--| 
C------------------------------------------------------------------------------| 


D------------------------------------------------------------------------------| 
A------------------------------------------------------------------------------| 
F---4---4--4--4--4--4--4--4--4--4--4--4---7---7--7--7--7--7--7--7--7--7--7--7--| 
C---4---4--4--4--4--4--4--4--4--4--4--4---7---7--7--7--7--7--7--7--7--7--7--7--| 
G---2---2--2--2--2--2--2--2--2--2--2--2---5---5--5--5--5--5--5--5--5--5--5--5--| 
C------------------------------------------------------------------------------| (x2) 


Outro 


D---------------------------------------------------------------------------------------------------| 
A---------------------------------------------------------------------------------------------------| 
F---7-------------------------------5-------------------------------4-------------------------------| 
C---7-------------------------------5-------------------------------4-------------------------------| 
G---5-5-5-5-5-5-5-5-5-5-5-5-5-5-5-5-3-3-3-3-3-3-3-3-3-3-3-3-3-3-3-3-2-2-2-2-2-2-2-2-2-2-2-2-2-2-2-2-| 
C---------------------------------------------------------------------------------------------------| 

D------------------------------------| 
A------------------------------------| 
F---7--------------------------------| 
C---7--------------------------------| 
G---5-5-5-5-5-5-5-5-5-5-5-5-5-5-5-5--| (x3) 
C------------------------------------| 
	  

No existe una video leccione para esta canción

request
LosAcordes
Buscar
auto avanzar rasgueos aumentar disminuir cambiar color esconder acordes gráficos
losacordes exhibir acordes losacordes youTube video losacordes ocultar tabs losacordes ir hacia arriba losacordes