Wednesday 13

Início > Wednesday ... > acordes

Get Your Grave On Tablatura

Wednesday 13

Dificultad:Ningún gradoNingún grado

aman_claudino

tuner correct add songbook print version text version salvar en e-mail
acordesukuleletablaturabajobateríaarmónicaflautacavacopiano Guitar Pro
acordes

Get Your Grave On

	  

Intro 

D|-------------------------------------------------------------------------------------| 
A|-------------------------------------------------------------------------------------| 
F|-------------------------------------------------------------------------------------| 
C|---0-0-0-0-0-0-0-0-0-0-0-0-0-0-----------------0-0-0-0-0-0-0-0-0-0-0-0-0-------------| 
G|---0-0-0-0-0-0-0-0-0-0-0-0-0-0-----------------0-0-0-0-0-0-0-0-0-0-0-0-0----8--10--8-| 
C|---0-0-0-0-0-0-0-0-0-0-0-0-0-0--(repeat 3x)----0-0-0-0-0-0-0-0-0-0-0-0-0-------------| 

Verse 1 

     Zombie,Cadaver What ......      I'm a spook....                  And I'm a ceature.... 

D|------------------------------------------------------------------------------------------------| 
A|------------------------------------------------------------------------------------------------| 
F|------------------------------------------------------------------------------------------------| 
C|---0-0-0-0-0-0-0-0-0-0-0-0-0-0------0-0-0-0-0-0-0-0-0-0-0-0-0-------3-3-3-3-3-3-3-3-3-3-3-3-3-3-| 
G|---0-0-0-0-0-0-0-0-0-0-0-0-0-0------0-0-0-0-0-0-0-0-0-0-0-0-0-------3-3-3-3-3-3-3-3-3-3-3-3-3-3-| 
C|---0-0-0-0-0-0-0-0-0-0-0-0-0-0------0-0-0-0-0-0-0-0-0-0-0-0-0-------3-3-3-3-3-3-3-3-3-3-3-3-3-3-| 

D|-----------------------------------------| 
A|-----------------------------------------| 
F|-----------------------------------------| 
C|---0-0-0-0-0-0-0-0-0-0-0-0-0-------------| 
G|---0-0-0-0-0-0-0-0-0-0-0-0-0----8--10--8-| 
C|---0-0-0-0-0-0-0-0-0-0-0-0-0-------------| 

Verse 2 

    And I'm your death, your dealer.... 

D|-----------------------------------------------------------------------------------------------| 
A|-----------------------------------------------------------------------------------------------| 
F|-----------------------------------------------------------------------------------------------| 
C|---x-x-0---x-x-0---x-x-0---x-x-0---------------------x-x-3--x-x-3--x-x-3--x-x-3----------------| 
G|---x-x-0---x-x-0---x-x-0---x-x-0---------------------x-x-3--x-x-3--x-x-3--x-x-3----------------| 
C|---x-x-0---x-x-0---x-x-0---x-x-0--(repeat 4x)--------x-x-3--x-x-3--x-x-3--x-x-3-(repeat once)--| 

      Baby That's Callig your name 

D|---------------------------------| 
A|---------------------------------| 
F|---------------------------------| 
C|-----x-x-0--x-x-0--x-x-0--x-x-0--| 
G|-----x-x-0--x-x-0--x-x-0--x-x-0--| 
C|-----x-x-0--x-x-0--x-x-0--x-x-0--| 

Chorus 

    Get    your     grave ,  Get   your   grave    on   baby 
D|----------------------------------------------------------------| 
A|----------------------------------------------------------------| 
F|----------------------------------------------------------------| 
C|---x---0-0-0-0-0---x--0-0-0-0-0--x---0-0-0-0-0---x--0-0-0-0-0---| 
G|---x---0-0-0-0-0---x--0-0-0-0-0--x---0-0-0-0-0---x--0-0-0-0-0---| 
C|---x---0-0-0-0-0---x--0-0-0-0-0--x---0-0-0-0-0---x--0-0-0-0-0---| 

    Stop                rottin         away 
D|--------------------------------------------------------------| 
A|--------------------------------------------------------------| 
F|--------------------------------------------------------------| 
C|---x--3-3-3-3-3---x--3-3-3-3-3---x--3-3-3-3-3---x--3-3-3-3-3--| 
G|---x--3-3-3-3-3---x--3-3-3-3-3---x--3-3-3-3-3---x--3-3-3-3-3--| 
C|---x--3-3-3-3-3---x--3-3-3-3-3---x--3-3-3-3-3---x--3-3-3-3-3--| 

   I'm dyin' just to hear you say       I'm    so     grave    now     dig   it,  baby! 
D|-------------------------------------------------------------------------------------| 
A|-------------------------------------------------------------------------------------| 
F|-------------------------------------------------------------------------------------| 
C|---7----7---7----6---6---3-----x---0-0--0-0-0---x--0-0-0-0-0--x---0-0-0-0-0---7----7-| 
G|---7----7---7----6---6---3-----x---0-0--0-0-0---x--0-0-0-0-0--x---0-0-0-0-0---7----7-| 
C|---7----7---7----6---6---3-----x---0-0--0-0-0---x--0-0-0-0-0--x---0-0-0-0-0---7----7-| 


Outro 

D|--------------------------------------------------------------------------| 
A|--------------------------------------------------------------------------| 
F|--------------------------------------------------------------------------| 
C|---0-0-0-0-0-0-0-0-0-0-0-0-0-0------0-0-0-0-0-0-0-0-0-0-0-0-0-------------| 
G|---0-0-0-0-0-0-0-0-0-0-0-0-0-0------0-0-0-0-0-0-0-0-0-0-0-0-0----8--10--8-| 
C|---0-0-0-0-0-0-0-0-0-0-0-0-0-0------0-0-0-0-0-0-0-0-0-0-0-0-0-------------| 

D|-----------------------------------------------| 
A|-----------------------------------------------| 
F|-----------------------------------------------| 
C|---x-x--x-x--0---------------------------------| 
G|---x-x--x-x--0---------------------------------| 
C|---x-x--x-x--0---(repeat as much as you hear)--| 
	  

No existe una video leccione para esta canción

request
LosAcordes
Buscar
auto avanzar rasgueos aumentar disminuir cambiar color esconder acordes gráficos
losacordes exhibir acordes losacordes youTube video losacordes ocultar tabs losacordes ir hacia arriba losacordes