We The Kings

Início > We The Kin... > acordes

The Middle (acoustic) Tablatura

We The Kings

Dificultad:Ningún gradoNingún grado

ubirbomfim

tuner correct add songbook print version text version salvar en e-mail
acordesukuleletablaturabajobateríaarmónicaflautacavacopiano Guitar Pro
acordes

The Middle (acoustic)

	  

INTRO 

Part 1 (Palm-muted):  
e|------------------------------------------------------------------| 
B|------------------------------------------------------------------| 
G|------------------------------------------------------------------| 
D|--4-4-0-0-0-0-0-0-0-0-0-4-4-4-4-4-2-2-----------------------------| 
A|--------------------------------------4-4-4-4-4-4-4-4-4-4-4-4-4-4-| 
D|------------------------------------------------------------------| 

e|------------------------------------------------------------------| 
B|------------------------------------------------------------------| 
G|------------------------------------------------------------------| 
D|--0-0-0-0-0-0-0-------------------0-0-0-0-0-0-0-0-0-0-0-0-0-0-0-0-| 
A|----------------4-4-4-4-4-4-4-4-4---------------------------------| 
D|------------------------------------------------------------------| 

Part 2 (Mute all 6 strings with the left hand): 
    D U D U D U D U D U D U D U D U 
e|------x-------x-------x-------x----| 
B|------x-------x-------x-------x----| 
G|------x-------x-------x-------x----|  x4 
D|--x-x-x-x-x-x-x-x-x-x-x-x-x-x-x-x--| 
A|--x-x-x-x-x-x-x-x-x-x-x-x-x-x-x-x--| 
E|--x-x-x-x-x-x-x-x-x-x-x-x-x-x-x-x--| 


verse 1 *0:12* 

Part 1 (Palm-muted):                                                  
e|------------------------------------------------------------------|  
B|------------------------------------------------------------------|  
G|------------------------------------------------------------------|  
D|--0-0-0-0-0-0-0-0-0-0-0-0-0-0-0-0---------------------------------| 
A|----------------------------------0-0-0-0-0-0-0-0-0-0-0-0-0-0-0-0-|  
D|------------------------------------------------------------------| 

 (First time around)  
e|------------------------------------------------------------------|  
B|------------------------------------------------------------------|  
G|------------------------------------------------------------------|  
D|------------------------------------------------------------------|  
A|------------------------------------------------------------------|  
D|--5-5-5-5-5-5-5-5-5-5-5-5-5-5-5-5-0-0-0-0-0-0-0-0-0-0-0-0-0-0-0-0-| 

e|------------------------------------------------------------------|  
B|------------------------------------------------------------------|  
G|------------------------------------------------------------------|  
D|--0-0-0-0-0-0-0-0-0-0-0-0-0-0-0-0---------------------------------| 
A|----------------------------------0-0-0-0-0-0-0-0-0-0-0-0-0-0-0-0-|  
D|------------------------------------------------------------------| 

 (Second time around) 
|.............................PM.............................| 
e|-------------------------------------------------------------2-2-|  
B|-------------------------------------------------------------3-3-|  
G|-------------------------------------------------------------2-2-|  
D|-------------------------------------------------------------0-0-|  
A|-----------------------------------------------------------------|  
D|--5-5-5-5-5-5-5-5-5-5-5-5-5-5-5-5-0-0-0-0-0-0-0-0-0-0-0-0-0------| 

Part 2 (Palm-muted and strummed down throughout): 
  D 
e|------2-------2-------2-------2---|\ 
B|------3-------3-------3-------3---| | 
G|------2-------2-------2-------2---| | 
D|--0-0-0-0-0-0-0-0-0-0-0-0-0-0-0-0-| | 
A|----------------------------------| | 
E|----------------------------------| | 
  A                                   | 
e|----------------------------------| | 
B|------2-------2-------2-------2---| | 
G|------2-------2-------2-------2---| | 
D|------2-------2-------2-------2---| | x2 
A|--0-0-0-0-0-0-0-0-0-0-0-0-0-0-0-0-| | 
E|----------------------------------| | 
  G                                   |  
e|----------------------------------| | 
B|------3-------3-------3-------3---| | 
G|------0-------0-------0-------0---| | 
D|------0-------0-------0-------0---| | 
A|----------------------------------| | 
E|--3-3-3-3-3-3-3-3-3-3-3-3-3-3-3-3-|/ 

  D (First time around)                                  
e|------2-------2-------2-------2---|  
B|------3-------3-------3-------3---|  
G|------2-------2-------2-------2---|  
D|--0-0-0-0-0-0-0-0-0-0-0-0-0-0-0-0-|  
A|----------------------------------| 
E|----------------------------------| 

  D (Second time around)        
|..............PM............|                           
e|------2-------2-------2------2-2---|  
B|------3-------3-------3------3-3---|  
G|------2-------2-------2------2-2---|  
D|--0-0-0-0-0-0-0-0-0-0-0-0-0--0-0---|  
A|-----------------------------------| 
E|-----------------------------------| 

Part 3 (Palm-muted): 
 *Come in when verse 1 is played the second time around, at 0:24 
   D                               A 
e|-----------------------------------------------------------------| 
B|-3---3---3---3---3---3---3---3---2---2---2---2---2---2---2---2---| 
G|---2---2---2---2---2---2---2---2---2---2---2---2---2---2---2---2-| 
D|-----------------------------------------------------------------| 
A|-----------------------------------------------------------------| 
E|-----------------------------------------------------------------| 
   G                               D 
e|-----------------------------------------------------------| 
B|-3---3---3---3---3---3---2---2---3---3---3---3---3---3---3-| 
G|---0---0---0---0---0---0---0---0---2---2---2---2---2---2---| 
D|-----------------------------------------------------------| 
A|-----------------------------------------------------------| 
E|-----------------------------------------------------------| 


Chorus *0:36* 
 *All parts 
    D                          A 
    D  D   U  U D U  U D U D U D   U D U  U D U  U D U D U 
e|--2--2---2--2-2-2--2-2-2-x-x-0---0-0-0--0-0-0--0-0-0-x-x-| 
B|--3--3---3--3-3-3--3-3-3-x-x-2---2-2-2--2-2-2--2-2-2-x-x-| 
G|--2--2---2--2-2-2--2-2-2-x-x-2---2-2-2--2-2-2--2-2-2-x-x-| 
D|--0--0---0--0-0-0--0-0-0-x-x-2---2-2-2--2-2-2--2-2-2-x-x-| 
A|-------------------------x-x-0---0-0-0--0-0-0--0-0-0-x-x-| 
E|-------------------------x-x-------------------------x-x-| 

    G                           D 
    D   U D U  U D U  U D U D U D   U D U  U D U  U D U 
e|--3---3-3-3--3-3-3--3-3-3-x-x-2---2-2-2--2-2-2--2-2-2-| 
B|--3---3-3-3--3-3-3--3-3-3-x-x-2---3-3-3--3-3-3--3-3-3-| 
G|--0---0-0-0--0-0-0--0-0-0-x-x-2---2-2-2--2-2-2--2-2-2-| 
D|--0---0-0-0--0-0-0--0-0-0-x-x-2---0-0-0--0-0-0--0-0-0-| 
A|--x---x-x-x--x-x-x--x-x-x-x-x-0-----------------------| 
E|--3---3-3-3--3-3-3--3-3-3-x-x-------------------------| 


verse 2 *0:47* 
 *Repeat verse 1, except part 3 plays twice this time 


REPEAT Chorus TWICE *1:10* 


SOLO *1:34* 

Part 3: 
 *Plays same solo as the original, performed by Jimmy Eat World 
 **Please look at this link:  
http://tabs.ultimate-guitar.com/j/jimmy_eat_world/the_middle_solo_tab.htm 

Part 2: 
    A                               D 
    D  D U  U D U  U D U  U D U D U D  D U  U D U  U D U  U D U D U 
e|-----0-0--0-0-0--0-0-0--0-0-0-x-x----2-2--3-3-3--3-3-3--3-3-3-x-x| 
B|-----2-2--2-2-2--2-2-2--2-2-2-x-x----3-3--3-3-3--3-3-3--3-3-3-x-x| 
G|-----2-2--2-2-2--2-2-2--2-2-2-x-x-2--2-2--0-0-0--0-0-0--0-0-0-x-x| 
D|--2--2-2--2-2-2--2-2-2--2-2-2-x-x-0--0-0--0-0-0--0-0-0--0-0-0-x-x| x2 
A|--0--0-0--0-0-0--0-0-0--0-0-0-x-x--------------------------------| 
E|-----------------------------------------------------------------| 

    G                               D 
    D  D U  U D U  U D U  U D U D U D  D U  U D U  U D U  U D U D U 
e|-----3-3--3-3-3--3-3-3--3-3-3-x-x----2-2--3-3-3--3-3-3--3-3-3-x-x| 
B|-----3-3--3-3-3--3-3-3--3-3-3-x-x----3-3--3-3-3--3-3-3--3-3-3-x-x| 
G|-----0-0--0-0-0--0-0-0--0-0-0-x-x-2--2-2--0-0-0--0-0-0--0-0-0-x-x| 
D|-----0-0--0-0-0--0-0-0--0-0-0-x-x-0--0-0--0-0-0--0-0-0--0-0-0-x-x| 
A|-----x-x--x-x-x--x-x-x--x-x-x-x-x--------------------------------| 
E|--3--3-3--3-3-3--3-3-3--3-3-3-x-x--------------------------------| 

    A                               A 
    D  D U  U D U  U D U  U D U D U D   D   D   D   D U D U 
e|-----0-0--0-0-0--0-0-0--0-0-0-x-x-0---0---0---0---0-0-0-0-| 
B|-----2-2--2-2-2--2-2-2--2-2-2-x-x-2---2---2---2---2-2-2-2-| 
G|-----2-2--2-2-2--2-2-2--2-2-2-x-x-2---2---2---2---2-2-2-2-| 
D|--2--2-2--2-2-2--2-2-2--2-2-2-x-x-2---2---2---2---2-2-2-2-| 
A|--0--0-0--0-0-0--0-0-0--0-0-0-x-x-------------------------| 
E|----------------------------------------------------------| 


verse 3 *1:58* 

Part 1: 
e|-----------------------------------------------------------| 
B|-----------------------------------------------------------| 
G|-----------------------------------------------------------| 
D|-----------------------------------------------------------| 
A|--------------------------0-0-0-0-0-0-0-0-0-0-0-0-0-0-0-0--| 
D|--0-0---0-0---0-0---0-0------------------------------------| 

e|------------------------------------------------------------------| 
B|------------------------------------------------------------------| 
G|------------------------------------------------------------------| 
D|------------------------------------------------------------------| 
A|------------------------------------------------------------------| 
D|--5-5-5-5-5-5-5-5-5-5-5-5-5-5-5-5-0-0-0-0-0-0-0-0-0-0-0-0-0-0-0-0-| 

e|------------------------------------------------------------------|  
B|------------------------------------------------------------------|  
G|------------------------------------------------------------------|  
D|--0-0-0-0-0-0-0-0-0-0-0-0-0-0-0-0---------------------------------| 
A|----------------------------------0-0-0-0-0-0-0-0-0-0-0-0-0-0-0-0-|  
D|------------------------------------------------------------------| 

|.............................PM.............................| 
e|-------------------------------------------------------------2-2-|  
B|-------------------------------------------------------------3-3-|  
G|-------------------------------------------------------------2-2-|  
D|-------------------------------------------------------------0-0-|  
A|-----------------------------------------------------------------|  
D|--5-5-5-5-5-5-5-5-5-5-5-5-5-5-5-5-0-0-0-0-0-0-0-0-0-0-0-0-0------| 

Part 2: 
e|-----------------------------------------------------------| 
B|------------------------------2-------2-------2-------2----| 
G|--2-2---2-2---2-2---2-2-------2-------2-------2-------2----| 
D|--0-0---0-0---0-0---0-0-------2-------2-------2-------2----| 
A|--------------------------0-0-0-0-0-0-0-0-0-0-0-0-0-0-0-0--| 
E|--0-0---0-0---0-0---0-0------------------------------------| 

  G                                    
e|----------------------------------|  
B|------3-------3-------3-------3---|  
G|------0-------0-------0-------0---|  
D|------0-------0-------0-------0---|  
A|----------------------------------|  
E|--3-3-3-3-3-3-3-3-3-3-3-3-3-3-3-3-| 

  D (First time around)                                  
e|------2-------2-------2-------2---|  
B|------3-------3-------3-------3---|  
G|------2-------2-------2-------2---|  
D|--0-0-0-0-0-0-0-0-0-0-0-0-0-0-0-0-|  
A|----------------------------------| 
E|----------------------------------| 

  D 
e|------2-------2-------2-------2---| 
B|------3-------3-------3-------3---|  
G|------2-------2-------2-------2---|  
D|--0-0-0-0-0-0-0-0-0-0-0-0-0-0-0-0-|  
A|----------------------------------|  
E|----------------------------------|  
  A                                    
e|----------------------------------|  
B|------2-------2-------2-------2---|  
G|------2-------2-------2-------2---|  
D|------2-------2-------2-------2---|  
A|--0-0-0-0-0-0-0-0-0-0-0-0-0-0-0-0-|  
E|----------------------------------|  
  G                                     
e|----------------------------------|  
B|------3-------3-------3-------3---|  
G|------0-------0-------0-------0---|  
D|------0-------0-------0-------0---|  
A|----------------------------------|  
E|--3-3-3-3-3-3-3-3-3-3-3-3-3-3-3-3-| 

  D (Second time around)        
|..............PM............|                           
e|------2-------2-------2------2-2---|  
B|------3-------3-------3------3-3---|  
G|------2-------2-------2------2-2---|  
D|--0-0-0-0-0-0-0-0-0-0-0-0-0--0-0---|  
A|-----------------------------------| 
E|-----------------------------------| 

Part 3 (Come in when he sings "yet"): 
   A 
e|---------------------------------| 
B|-2---2---2---2---2---2---2---2---| 
G|---2---2---2---2---2---2---2---2-| 
D|---------------------------------| 
A|---------------------------------| 
E|---------------------------------| 
   G                               D 
e|-----------------------------------------------------------------| 
B|-3---3---3---3---3---3---2---2---3---3---3---3---3---3---3---3---| 
G|---0---0---0---0---0---0---0---0---2---2---2---2---2---2---2---2-| 
D|-----------------------------------------------------------------| 
A|-----------------------------------------------------------------| 
E|-----------------------------------------------------------------| 

   D                               A 
e|-----------------------------------------------------------------| 
B|-3---3---3---3---3---3---3---3---2---2---2---2---2---2---2---2---| 
G|---2---2---2---2---2---2---2---2---2---2---2---2---2---2---2---2-| 
D|-----------------------------------------------------------------| 
A|-----------------------------------------------------------------| 
E|-----------------------------------------------------------------| 
   G                               D 
e|-----------------------------------------------------------| 
B|-3---3---3---3---3---3---2---2---3---3---3---3---3---3---3-| 
G|---0---0---0---0---0---0---0---0---2---2---2---2---2---2---| 
D|-----------------------------------------------------------| 
A|-----------------------------------------------------------| 
E|-----------------------------------------------------------| 


REPEAT Chorus TWICE 
 Played the same, except the end in the second time around is played 
a little differently, but I'm sure you guys can figure it out.  :) 


ORDER OF SONG: 
 - Intro 
 - verse 1 
 - Chorus 
 - verse 2 
 - Chorus (x2) 
 - Solo 
 - verse 3 
 - Chorus (x2) 

************************************ 

| /   slide up 
| \   slide down 
| h   hammer-on 
| p   pull-off 
| ~   vibrato 
| +   harmonic 
| x   Mute note 
| b   Bend 
| pb  Pre-bend 
| br  Bend release 
| pbr Pre-bend release 
| brb Bend release bend 
| D   Strum down 
| U   Strum up 
| PM  Palm mute 

************************************ 
	  

No existe una video leccione para esta canción

request
Aumentar uno tonoAumentar uno tono
Aumentar uno semi-tonoAumentar uno semi-tono
Disminuir uno semi-tonoDisminuir uno semi-tono
Disminuir uno tonoDisminuir uno semi-tono
LosAcordes
Buscar
auto avanzar rasgueos aumentar disminuir cambiar color esconder acordes gráficos
losacordes exhibir acordes losacordes youTube video losacordes ocultar tabs losacordes ir hacia arriba losacordes