We The Kings

Início > We The Kin... > acordes

Skyway Avenue Tablatura

We The Kings

Dificultad:FácilFácil

Indestructible

tuner correct add songbook print version text version salvar en e-mail
acordesukuleletablaturabajobateríaarmónicaflautacavacopiano Guitar Pro
acordes

Skyway Avenue

	     Intro 
E-10-9-10-9-8-7-10---10-9-8-10-10-9-8-| 
B------------------9-10-9-8-10-10-9-8-| 
G-------------------------------------| 
D-------------------------------------| 
A-------------------------------------| 
E-------------------------------------| 

   Verse 
E--------------------3-6-7-7-8--| 
B---------------6-4-------------| 
G-7-7-7-7-6-6-8-----------------| 
D-------------------------------| 
A-------------------------------| 
E-------------------------------| 

   Bridge 
E-0-3-0-0-3-----------------------| 
B-2-0-2-2-0-----------------------| 
G-3-0-3-3-0-----------------------| 
D-0-0-4-0-0-----------------------| 
A---2-0---2-------2-2-2-2---------| 
E---3-----3-3-3-3---------0-0-0-0-| 

   Chorus 
E-----------------------------| 
B-----------------------------| 
G-----------6-6-6-6-6---------| 
D-5-5-5-5-5-6-6-6-6-6---------| 
A-3-3-3-3-3-4-4-4-4-4-7-7-7-7-| 
E---------------------5-5-5-5-| 
	  

No existe una video leccione para esta canción

request
LosAcordes
Buscar
auto avanzar rasgueos aumentar disminuir cambiar color esconder acordes gráficos
losacordes exhibir acordes losacordes youTube video losacordes ocultar tabs losacordes ir hacia arriba losacordes