Vixen

Início > Vixen > acordes

How Much Love Tablatura

Vixen

Dificultad:ExpertoExperto

sabrjoao

tuner correct add songbook print version text version salvar en e-mail
acordesukuleletablaturabajobateríaarmónicaflautacavacopiano Guitar Pro
acordes

How Much Love

	  (intro) 

|------------------------------------|-----------------------------------| 
|------------------------------------|-----------------------------------| 
|------------------5-----------------|-----------5-----------------------| 
|---x----9--7--5-----9--7--5--9--7--|--9--7--5-----9--7--5---------------| 
|---x-------------------------------|-----------------------/9--7--5-----| 
|---x-------------------------------|------------------------------------| 

|----------------------------|---------------------| 
|----------------------------|---------------------| 
|----------5-----------------|---------------9*----| 
|-9--7--5-----9--7--5--9--7--|--10--9--7--5--------| 
|----------------------------|---------------------| 
|----------------------------|---------------------| 

|---------------------------|-----------------------|----------------------| 
|---------------------------|-----------------------|----------------------| 
|---------------------------|-----------------------|----------------------| 
|------------------------2--|-----------5--4-----2--|-------------------2--| 
|--x--------2--5--5--5-----|--------2--------5-----|-------2--5--5--5------| 
|--x--0--0-----------------|--0--0-----------------|-0--0------------------| 
  1st 

|---------------| 
|---------------| 
|---5----7------| 
|---5----7------| 
|---3----5------| 
|---------------| 

You're in a corner, turning your back 
You're running away again 
The more I give you, the less that you take 
Tell me, where is it gonna end? 

    G 
1 Woah  oh oh  I can  see   you've    felt   some   pain    | 
2              I know   you've  been  hurt          before  | 
3              But  I   swear   you   won't   get   hurt   (to next staff) 
|-------------------|-----------------------------------------------------| 
|---5--5--5--3------|-----------------------------------------------------| 
|---4--4--4--2------|--5--------------7-----------------------------------| 
|-------------------|--5--------------7-------------5---------------------| 
|-------------------|--3--------------5-------------5---------------------| 
|-------------------|-------------------------------3---------------------| 

    no    more 
|------------------| 
|------------------| 
|---------7--------| 
|---------7--------| 
|---------5--------| 
|------------------| 

(Refrão) 

   Tell  Me    How  much love  is it gonna take 
               To prove I'm not another heartache 
               till you begin to let your heart give in 
|-----------|---------------------------------------------| 
|-----------|---------------------------------------------| 
|--5-----7--|-------------5-----------------7-------------| 
|--5-----7--|--5----------5-----------------7-------------| 
|--3-----5--|--5----------3-----------------5-------------| 
|-----------|--3------------------------------------------| 

   How  much  love,   is it gonna take 
|--------------------------------------| 
|--------------------------------------| 
|-------------5---7--------------------| 
|-----5-------5---7--------------------| 
|-----5-------3---5--------------------| 
|-----3--------------------------------| 

            1/2               1/2      1/2 
|-------------------------------------------------------------------------| 
|-12h15p12--------12------12--15b------7b------5~-------------------------| 
|-----------14b-------14--------------------------------------------------| 
|-------------------------------------------------------------------------| 
|-------------------------------------------------------------------------| 
|-------------------------------------------------------------------------| 


(verso 2) 
I'm reaching for you, getting so close 
But you're always a step away 
I wanna touch you, give you my love 
Tell me, what is it going to take 
I can see it in your eyes, that you want 
To let me in 
But you're scared that you'll get hurt, 
Again 

(Refrão) 

|------------------------|----------------------| 
|------------------------|----------------------| 
|------------------------|----------------------| 
|---------------------2--|----------5--4-----2--| 
|---------2--5--5--5-----|-------2--------5-----| 
|---0--0-----------------|-0--0-----------------| 

(ponte) 

|-------------------------|------------------------|----------------------| 
|-------------------------|------------------------|----------------------| 
|--5----7--7----5----7----|-5----7--7----5----7----|----------------------| 
|--5----7--7----5----7----|-5----7--7----5----7----|---5------------------| 
|--3----5--5----3----5----|-3----5--5----3----5----|---5------------------| 
|-------------------------|------------------------|---3------------------| 

(solo) 

    slowly                                    slowly 
|-----------------------|---------------------17bf------------------------| 
|----17bf------17b~~~---|--17p15--17bf~~~---------------------------------| 
|-----------------------|-------------------------------------------------| 
|-----------------------|-------------------------------------------------| 
|-----------------------|-------------------------------------------------| 
|-----------------------|-------------------------------------------------| 

                                             1/2   1/2 
|--17p15----------------------------|-------------------------------------| 
|--------17--17p15------------------|-------------------------------------| 
|------------------14--14p12--------|-------------------------------------| 
|-----------------------------14p12-|-------------------------------------| 
|-----------------------------------|14--12--14b---14b-----12-------------| 
|-----------------------------------|-------------------------------------| 

                     1/2   1/2               1/4 
|----------------------------------------|--------------------------------| 
|----------------------------------------|--15b----rb15------12--12--12---| 
|----------------12--14b---14b---rb14p12-|--------------------------------| 
|---------12h14--------------------------|--------------------------------| 
|--12h14---------------------------------|--------------------------------| 
|----------------------------------------|--------------------------------| 

|------------------------3~----| 
|--15bf---15bf---15bf----3~----| 
|------------------------------| 
|------------------------------| 
|------------------------------| 
|------------------------------| 

|--------------|--------------|--------------------| 
|--------------|--------------|--------------------| 
|--------------|--------------|--------------------| 
|-----------2--|----------2---|----4--4--4--4--4---| 
|-----2--5-----|----2--5------|----4--4--4--4--4---| 
|--0-----------|-0------------|----2--2--2--2--2---| 

|-----------------------|-----------------------|-------------------------| 
|-----------------------|-----------------------|-------------------------| 
|-----------------------|-----------------------|-5--7--7--5--7-----------| 
|--------------------2--|--------------------2--|-5--7--7--5--7----3------| 
|--------2--5--5--5-----|--------2--5--5--5-----|-3--5--5--3--5----3------| 
|--0--0-----------------|--0--0-----------------|------------------1------| 

(Refrão) 

|-------------------------| 
|-------------------------| 
|---------8----8----10----| 
|----8----8----8----10----| 
|----8----6----6----8-----| 
|----6--------------------| 

|--------------------------------------|-----------------------------------| 
|--------------------------------------|-----------------------------------| 
|---------------8----------------------|-------------8---------------------| 
|----12--10--8-----12--10--8--12--10~--|--12--10--8-----12--10--8----------| 
|--------------------------------------|---------------------------12--10-8| 
|--------------------------------------|-----------------------------------| 

|---------------------------| 
|--------15bf~~~~-----------| 
|---------------------------| 
|---------------------------| 
|---------------------------| 
|---------------------------| 
	  

No existe una video leccione para esta canción

request
Aumentar uno tonoAumentar uno tono
Aumentar uno semi-tonoAumentar uno semi-tono
Disminuir uno semi-tonoDisminuir uno semi-tono
Disminuir uno tonoDisminuir uno semi-tono
LosAcordes
Buscar
auto avanzar rasgueos aumentar disminuir cambiar color esconder acordes gráficos
losacordes exhibir acordes losacordes youTube video losacordes ocultar tabs losacordes ir hacia arriba losacordes