Virgin Black

Início > Virgin Bla... > acordes

Our Wings Are Burning Tablatura

Virgin Black

Dificultad:Ningún gradoNingún grado

Young Dreamer

tuner correct add songbook print version text version salvar en e-mail
acordesukuleletablaturabajobateríaarmónicaflautacavacopiano Guitar Pro
acordes

Our Wings Are Burning

	  Tabber: hermpes (e-mail: [email protected]) 
Strum Key: ^="Down" V="Up" 
 
This is a relatively easy song to play. The only part of the song I don't  
know is the solo 
at the end. 
 
The beginng is Piano only, the guitar part (below) comes in after the first  
verse(?) 
Clean 
Strum Pattern: ^ ^ V ^ V ^ ^ V ^ V 
E|-------------------------------- 
B|5---3---1---5---------------- 
G|7---5---3---7---------------- 
D|7---5---3---7---------------- 
A|-------------------------------- 
E|-------------------------------- 
 
Then it goes into the distortion 
 
Distortion 
Strum Pattern: ^ V V ^ V ^ V ^ ^ V ^ V ^ V 
E|-------------------------------- 
B|5---5---3---3---------------- 
G|7---7---5---5---------------- 
D|7---7---5---5---------------- 
A|-------------------------------- 
E|-------------------------------- 
 
It then kills the distortion for a moment 
 
Clean 
Strum Pattern:  ^ V V ^ V ^ V ^ ^ V ^ V ^ V 
E|-------------------------------- 
B|5---5------------------------- 
G|7---7------------------------- 
D|7---7------------------------- 
A|-------------------------------- 
E|-------------------------------- 
 
Then it quickly picks up the distortion and continues the normal distortion  
pattern starting 
at: 
 
E|-------------------------------- 
B|3---3------------------------- 
G|5---5------------------------- 
D|5---5------------------------- 
A|-------------------------------- 
E|-------------------------------- 
 
Note: Sometimes during the distortion pattern, it deviates to: 
E|------------------------------- 
B|5---3---1---5--------------- 
G|7---5---3---7--------------- 
D|7---5---3---7--------------- 
A|------------------------------- 
E|------------------------------- 
	  

No existe una video leccione para esta canción

request
LosAcordes
Buscar
auto avanzar rasgueos aumentar disminuir cambiar color esconder acordes gráficos
losacordes exhibir acordes losacordes youTube video losacordes ocultar tabs losacordes ir hacia arriba losacordes