Victor e Léo

Início > Victor e L... > acordes

Borboletas Tablatura

Victor e Léo

Dificultad:PrincipiantePrincipiante

mayman

tuner correct add songbook print version text version salvar en e-mail
acordesukuleletablaturabajobateríaarmónicaflautacavacopiano Guitar Pro
acordes

Borboletas

Tono:  Bm Más
Borboletas Key F#mF#m
Borboletas Key GmGm
Borboletas Key G#mG#m
Borboletas Key AmAm(Disminuir uno tono)
Borboletas Key A#mA#m(Disminuir uno semi-tono)
Borboletas Key BmBm(tono original)
Borboletas Key CmCm(Aumentar uno semi-tono)
Borboletas Key C#mC#m(Aumentar uno tono)
Borboletas Key DmDm
Borboletas Key D#mD#m
Borboletas Key EmEm
Borboletas Key FmFm
	  Se for usar o capotraste igual ao Victor na segunda casa, apenas diminua um tom da música. 

Introdução: Bm, D, Bm, A, D, Bm, G, A, Bm 


E|--------------------------------5----------- 
B|-----------------------------------3h5-3-3-- 
G|-------6h7p6/4----------6h7p6/4------------- 
D|-----9---------4------9--------------------- 
A|-7h9--------------7h9----------------------- 
E|-------------------------------------------- 

E|--------------------------------- 
B|--------------------------------- 
G|--------------------------------- 
D|--7-9-9-7--9-7---9-9-7---9-9-7--- 
A|-9-------9-----9-------9------9-- 
E|--------------------------------- 

E|-------------------------------- 
B|-------------------------------- 
G|-------------------------------- 
D|-7-7-4---7-4---7--7-4---7-7---7- 
A|-------7-----7--------7-----4--- 
E|-------------------------------- 

E|------------------------------- 
B|------------------------------- 
G|-7-7-6---7-6---7-7-6---6-7-6--- 
D|-------7-----7-------7-------7- 
A|------------------------------- 
E|------------------------------- 

E|------------ 
B|------------ 
G|-4-4-2-4-2-- 
D|-4-4-2-4-2-- 
A|------------ 
E|------------ 

E|---3-3-3----0-0-0--------- 
B|---3-3-3----2-2-2---2-3-2- 
G|---0-0-0----2-2-2---4-4-4- 
D|---0--------2------------- 
A|---2------0-------2------- 
E|-3------------------------ 



   Bm                       D 
Percebo que o tempo já não passa 
                       A     Bm                      
Você diz que não tem graça amar assim 
     Bm                     D 
Foi tudo tão bonito, mas voou pro infinito 
     A             Bm               
Parecido com borboletas de um jardim 


E|------------- 
B|------------- 
G|---6h7p6---4- 
D|-7-------7--- 
A|------------- 
E|------------- 


Em          G 
Agora você volta  
     D                         A 
E balança o que eu sentia por outro alguém 
Em                   G 
Dividido entre dois mundos 
                A                       Bm 
Sei que estou amando mas ainda não sei quem...  
           G           D 
Não sei dizer o que mudou 
     A           Bm 
Mas nada está igual 
      G                D           A            Bm 
Numa noite estranha a gente se estranha e fica mal 
   G           D       A             Bm 
Você tenta provar que tudo em nós morreu 
      G            D 
Borboletas sempre voltam 
     A             Bm 
E o seu jardim sou eu. 


Base do solo final: D A F# G A Bm 


E|-14-14-14--15-15-15--14-14-14-14-14-14--15-15-14-14-- 
B|-15-15-15--15-15-15--15-15-15-15-15-15--15-15-15-15-- 
G|----------------------------------------------------- 
D|----------------------------------------------------- 
A|----------------------------------------------------- 
E|----------------------------------------------------- 

E|-14-14-14--15-15-15--14-14-14-14-14-14--15-15-14-14-- 
B|-15-15-15--15-15-15--15-15-15-15-15-15--15-15-15-15-- 
G|----------------------------------------------------- 
D|----------------------------------------------------- 
A|----------------------------------------------------- 
E|----------------------------------------------------- 

E|-14-14-14--15-15-15--14-14-14-14-14-14/12--12-12-12/9---9--9-- 
B|-15-15-15--15-15-15--15-15-15-15-15-15/14--14-14-14/10--10-10- 
G|-------------------------------------------------------------- 
D|-------------------------------------------------------------- 
A|-------------------------------------------------------------- 
E|-------------------------------------------------------------- 

E|------------ 
B|------------ 
G|-4-4-2-4-2-- 
D|-4-4-2-4-2-- 
A|------------ 
E|------------ 

E|---3-3-3----0-0-0--------- 
B|---3-3-3----2-2-2---2-3-2- 
G|---0-0-0----2-2-2---4-4-4- 
D|---0--------2------------- 
A|---2------0-------2------- 
E|-3------------------------ 
	  

No existe una video leccione para esta canción

request
Aumentar uno tonoAumentar uno tono
Aumentar uno semi-tonoAumentar uno semi-tono
Disminuir uno semi-tonoDisminuir uno semi-tono
Disminuir uno tonoDisminuir uno semi-tono
LosAcordes
Buscar
auto avanzar rasgueos aumentar disminuir cambiar color esconder acordes gráficos
losacordes exhibir acordes losacordes youTube video losacordes ocultar tabs losacordes ir hacia arriba losacordes