TV Themes

Início > TV Themes > acordes

Pica-pau Tablatura

TV Themes

Dificultad:PrincipiantePrincipiante

felipemontero

tuner correct add songbook print version text version salvar en e-mail
acordesukuleletablaturabajobateríaarmónicaflautacavacopiano Guitar Pro
acordes

Pica-pau

	  Tema do Famoso Pica-Pau 

1ª Parte 
E|-------7--10--7--------7--10--7--| 
B|----8--------------8-------------| 
G|-7-------------7-----------------| 
D|---------------------------------| 
A|---------------------------------| 
E|---------------------------------| 

2ª Parte 
E|--10--7--8--10--8--7-------------| 
B|----------------------10--10--8--| 
G|---------------------------------| 
D|---------------------------------| 
A|---------------------------------| 
E|---------------------------------| 

3ª Parte 

E|--8--10--12--10--12--8--|--8--10--11--10--11--8--| 
B|------------------------|------------------------| 
G|------------------------|------------------------| 
D|------------------------|------------------------| 
A|------------------------|------------------------| 
E|------------------------|------------------------| 


Toque nessa ordem 

1ª Parte 
2ª Parte 
1ª Parte 
2ª Parte 
3ª Parte 
1ª Parte 
2ª Parte 

=============================================== 
	  

No existe una video leccione para esta canción

request
LosAcordes
Buscar
auto avanzar rasgueos aumentar disminuir cambiar color esconder acordes gráficos
losacordes exhibir acordes losacordes youTube video losacordes ocultar tabs losacordes ir hacia arriba losacordes