Tumbleweed

Início > Tumbleweed > acordes

Acid Rain Tablatura

Tumbleweed

Dificultad:Ningún gradoNingún grado

tuner correct add songbook print version text version salvar en e-mail
acordesukuleletablaturabajobateríaarmónicaflautacavacopiano Guitar Pro
acordes

Acid Rain

	  Transcribed by Andrew Loch ([email protected]) 
 
Here's a nice oldie by the weed that is probably their most "mainstream" 
sounding song. I've tabbed the song for only 1 guitar so the riffs at the 
end are a hybrid of 2 guitars and not entirely complete. 
 
Intro/Verse 1: 
 
e-------|-------| 
B-------|-------| 
G-5-4-5-|-9-5-7-| throw in a couple of strums or picks 
D-3-2-3-|-7-3-5-| at the end of each progression 
A-------|-------| 
E-------|-------| 
 
Chorus: 
 
e---|---|---| 
B---|---|---| 
G---|---|-5-| 
D-7-|-3-|-5-| 
A-7-|-3-|-3-| 
E-5-|-1-|---| 
 
End of chorus riff: 
 
e--------------------------------- 
B--------------------------------- 
G-4-4-------2-2-2-2-----2-2-4-4-4- 
D-4-4-0-----2-2-2---3-2-2-2-4-4-4- 
A-2-2---4-0-0-0-0-------0-0-2-2-2- 
E--------------------------------- 
 
Verse 2: same as verse 1 but progressions in reverse order 
 
Outro: 
 
e-------------------------8\7-4-5- 
B--------------------------------- 
G-4-4-------4-4-------2-2--------- x4 
D-4-4-0-----4-4-0-----2-2--------- 
A-2-2---4-0-2-2---4-0-0-0--------- 
E--------------------------------- 
 
 
e-------------------------8-7-4-5- 
B--------------------------------- 
G-4-4-------4-4-------4-4--------- 
D-4-4-0-----4-4-0-----4-4--------- 
A-2-2---4-0-2-2---4-0-2-2--------- 
E--------------------------------- 
	  

No existe una video leccione para esta canción

request
LosAcordes
Buscar
auto avanzar rasgueos aumentar disminuir cambiar color esconder acordes gráficos
losacordes exhibir acordes losacordes youTube video losacordes ocultar tabs losacordes ir hacia arriba losacordes