Transplants

Início > Transplant... > acordes

Sad But True Tablatura

Transplants

Dificultad:ExpertoExperto

tuner correct add songbook print version text version salvar en e-mail
acordesukuleletablaturabajobateríaarmónicaflautacavacopiano Guitar Pro
acordes

Sad But True

	  Intro Organ 
e-4~------- 
b-4~-6~-8~- 
g-5~-6~-8~- 
d-6~-6~-8~-  REPEAT 
a-6~-4~-6~- 
E---------- 
Intro Guitar 1 
e------------------------ 
b-4-444444-6666-888-8-6-- 
g------------------------  
d------------------------ 
a------------------------ 
E------------------------ 
Intro Guitar 2 Reapeat though out almost whole song 
e-3/4-44444-3/4-44444-9-999999----11----11- 
b-3/4-44444-3/4-44444-9-999999-11----11---- 
g------------------------------------------ 
d------------------------------------------ 
a------------------------------------------ 
E------------------------------------------ 
Repeat through out almost whole song 
e------------------------ 
b------------------------ 
g-------------6666--8888- 
d-6666--6666--6666--8888- 
a-6666--6666--4444--6666- 
E-4444--4444------------- 
First solo thing 2x 2nd Time don't play first 4 notes 
e------------------------------------------------------------- 
b------------------------------------------------------------- 
g----------------1---1---1---1---1---1----3-5-3-1--3-5-3-1---- 
d-3--1~-3--1~--3---3---3---3---3---3---3---------------------- 
a------------------------------------------------------------- 
E------------------------------------------------------------- 
(IN A DREAM.....)Clean No Distortion 
e------------------------------------- 
b------------------------------------- 
g------------------------------------- 
d------------------------------------- 
a--------------------4-44444-6-66666-- 
E-4-44444-4-44444--------------------- 
SOLO 2x 
e--------------------------------------------------- 
b-18--16--18--18--16--18-16-18-18-16-18-16-18-16-18- 
g--------------------------------------------------- 
d--------------------------------------------------- 
a--------------------------------------------------- 
E--------------------------------------------------- 
Last solo     2x                                        1x 
e--------------------------------------------------|------------ 
b--------------------------------------------------|------------ 
g-----1---1---1---1---1---1----3-5-3-1--3-5-3-1----|---1~----1~- 
d---3---3---3---3---3---3---3----------------------|-3-----3---- 
a--------------------------------------------------|------------ 
E--------------------------------------------------|------------ 
 
Then End With (IN a Dream.....) Riff 
 

	  

No existe una video leccione para esta canción

request
LosAcordes
Buscar
auto avanzar rasgueos aumentar disminuir cambiar color esconder acordes gráficos
losacordes exhibir acordes losacordes youTube video losacordes ocultar tabs losacordes ir hacia arriba losacordes