Transplants

Início > Transplant... > acordes

Down In Okland Tablatura

Transplants

Dificultad:Ningún gradoNingún grado

tuner correct add songbook print version text version salvar en e-mail
acordesukuleletablaturabajobateríaarmónicaflautacavacopiano Guitar Pro
acordes

Down In Okland

	  By:sexpistols78 
RIFF A ABOUT 5X 
e-|------------------ 
b-|------------------ 
g-|------------------ 
d-|-22222------------ 
a-|-------0---------- 
E-|----------333-3-2- 
RIFF B 
e-|----1-2-1------1-1-2-3-----1-2-1- 
b-|--------------------------------- 
g-|-4---------4------------4-------- 
d-|--------------------------------- 
a-|--------------------------------- 
E-|--------------------------------- 
RIFF C 
e-|------------- 
b-|------------- 
g-|------------- 
d-|------------- 
a-|-2-3-2-0----- 
E-|---------3-2- 
RIFF D 4x 
e-|--------------------- 
b-|--------------------- 
g-|--------------------- 
d-|-2222---------------- 
a-|------0000----------- 
E-|-----------3333-2222- 
RIFF E 4x 
e-|------------------------------ 
b-|------------------------------ 
g-|------4-------4--------8----8- 
d-|------------------------------ 
a-|----5------5--------9----9---- 
E-|-3------3--------7----7------- 
JUST BEFORE THE PART WHERE  YOU PLAY RIFF C 4X PLAY THIS 
e-|-1h2p1h2p1---1-1-2-1- 
b-|-----------4--------- 
g-|--------------------- 
d-|--------------------- 
a-|--------------------- 
E-|--------------------- 
LAST TIME YOU PLAY RIFF C OUT OF THE 4x PLAY THIS 
e-|------------------------------- 
b-|------------------------------- 
g-|------------------------------- 
d-|------------------------------- 
a-|-232-0---^--------------------- 
E-|-------3-2-0--2-0---0000000000- 
OUTRO PLAYED OVER RIFF A 
e-|------------------------------- 
b-|-0--232-0--0-232-0-232-0-232-0- 
g-|------------------------------- 
d-|------------------------------- 
a-|------------------------------- 
E-|------------------------------- 
 

	  

No existe una video leccione para esta canción

request
LosAcordes
Buscar
auto avanzar rasgueos aumentar disminuir cambiar color esconder acordes gráficos
losacordes exhibir acordes losacordes youTube video losacordes ocultar tabs losacordes ir hacia arriba losacordes