Toby Keith

Início > Toby Keith > acordes

You Didn't Have As Much To Lose Tablatura

Toby Keith

Dificultad:Ningún gradoNingún grado

tuner correct add songbook print version text version salvar en e-mail
acordesukuleletablaturabajobateríaarmónicaflautacavacopiano Guitar Pro
acordes

You Didn't Have As Much To Lose

(Keith/Cannon)

	  /-slide up                         h- hammer on 
 
bhr- bend, hold, and release       p- pull off 
 
\-slide down                       ~-vibrato 
 
 
E----------5-5h6p5p3h5~~------------------------------------13-13- 
B------6-8----------------6-8-10-10\5------6-8-10-10~/13-13------- 
G--3/5--------------------------------5~~------------------------- 
D----------------------------------------------------------------- 
A----------------------------------------------------------------- 
E----------------------------------------------------------------- 
 
 
E-15-17bhr15----15------------------------------------------------ 
B------------17--------------------------------------------------- 
G------------------17-17~~---15-15\14-14h15p14-12h13p12p10h12----- 
D----------------------------------------------------------------- 
A----------------------------------------------------------------- 
E----------------------------------------------------------------- 
 

	  

No existe una video leccione para esta canción

request
LosAcordes
Buscar
auto avanzar rasgueos aumentar disminuir cambiar color esconder acordes gráficos
losacordes exhibir acordes losacordes youTube video losacordes ocultar tabs losacordes ir hacia arriba losacordes