Toby Keith

Início > Toby Keith > acordes

Taliban Song Tablatura

Toby Keith

Dificultad:ExpertoExperto

tuner correct add songbook print version text version salvar en e-mail
acordesukuleletablaturabajobateríaarmónicaflautacavacopiano Guitar Pro
acordes

Taliban Song

	   
Standard Tuning (E-A-D-G-B-e) with  
 
As far as I know, this song is only done live! 
Hope this helps. 
 
Intro: 
e|---|------------------------------------------------------| 
B|---c---------------3---/7--5--3--5---2--0-----------------| 
G|---a---------------------------------------2--0-----------| 
D|---p--------0-2/4------/7--5--4--5---2--0--------------0--| 
A|---o---0-2h--------------------------------4--2----0-2h---| 
E|---|------------------------------------------------------| 
 
 
Verses:  
e|---|----2-----2-----0-----0------| 
B|---c----3-----2-----3-----3------| 
G|---a----2-----2-----0-----0------| 
D|---p----0-----2-----0-----2------| 
A|---o----------4-----2-----0------| 
E|---|----------2-----0------------| 
 
 
Chorus: 
e|---|----3----0----2----2---|---3----0----2----2---| 
B|---c----3----2----3----3---|---3----2----3----1---| 
G|---a----0----0----2----2---|---0----0----2----2---| 
D|---p----0----2----0----4---|---0----2----0----0---| 
A|---o----2----0---------2---|---2----0-------------| 
E|---|----3--------------2---|---3------------------| 
 
e|---|----3----0----2----2---|---3----0---| 
B|---c----3----2----3----3---|---3----2---| 
G|---a----0----0----2----2---|---0----0---| 
D|---p----0----2----0----4---|---0----2---| 
A|---o----2----0---------2---|---2----0---| 
E|---|----3--------------2---|---3--------| 
 
 
Repeat as needed. Chords are to be picked or just strum it! 
 
                                                        
                                                      
Ending: (hard to hear) 
e|-------------------------------------------------2---|-5-2p-------| 
B|-----------/7---5---3---0------------------3-----2---|-2----------| 
G|-------------------------------------------------2---|------(x5)--| 
D|-----------/7---5---4---0----0-2/4\2-0--2/4----0-----|-0----------| 
A|-------0---------------------------------------------|------------| 
E|-----------------------------------------------------|------------| 
 
 
 

	  

No existe una video leccione para esta canción

request
LosAcordes
Buscar
auto avanzar rasgueos aumentar disminuir cambiar color esconder acordes gráficos
losacordes exhibir acordes losacordes youTube video losacordes ocultar tabs losacordes ir hacia arriba losacordes