Toby Keith

Início > Toby Keith > acordes

Pull My Chain Tablatura

Toby Keith

Dificultad:Ningún gradoNingún grado

tuner correct add songbook print version text version salvar en e-mail
acordesukuleletablaturabajobateríaarmónicaflautacavacopiano Guitar Pro
acordes

Pull My Chain

	  :-repeat    /-slide up 
p-pull off  b- bend 
~- vibrato 
 
 
E:--------------------------------------------6/7-6-5-------------------: 
B:--------------------------------------------7/8-7-5-------------------: 
G:------2-2-5p2-2-----2-5p2-2--------2-2-5p2-------------5--------------: 
D:------2-2-5p2-2-----2-5p2-2--------2-2-5p2-----------7---7-5----------: 
A:------------------------------------------------------7---7-----------: 
E:--3b-------------3------------3b--------------------------------------: 
 
E:----------------------------------------------------------------------: 
B:----------------------------------------------------------------------: 
G:-----------------------------7br5-------------------------------------: 
D:---------------------------------7~~----------------------------------: 
A:----------------------------------------------------------------------: 
E:----------------------------------------------------------------------: 
 

	  

No existe una video leccione para esta canción

request
LosAcordes
Buscar
auto avanzar rasgueos aumentar disminuir cambiar color esconder acordes gráficos
losacordes exhibir acordes losacordes youTube video losacordes ocultar tabs losacordes ir hacia arriba losacordes