Toby Keith

Início > Toby Keith > acordes

I Wanna Talk About Me(ver.2) Tablatura

Toby Keith

Dificultad:Ningún gradoNingún grado

tuner correct add songbook print version text version salvar en e-mail
acordesukuleletablaturabajobateríaarmónicaflautacavacopiano Guitar Pro
acordes

I Wanna Talk About Me(ver.2)

	  just try my way and if you dont like it or have some revisions email me at : [email protected] 
 
e:----------------------------------------- 
b:----------------------------------------- 
g:----------------------------------------- 
d:----------------5------------------------ 
a:--------3--3-5>7----------------4>5-8---- 
E:--1--3>5-------------1-3>5-5-6-6--------- 
 
 
e:----------------------------------------- 
b:----------------------------------------- 
g:--------------------7--5--7-------------- 
d:----------------5---7--5--7-------------- 
a:--------3--3-5>7----5--3--5-------------- 
E:--1--3>5--------------------------------- 
 
 
e:----------------------------------------- 
b:----------------------------------------- 
g:----------------------------------------- 
d:----------------5------------------------ 
a:--------3--3-5>7----------------4>5-8---- 
E:--1--3>5-------------1-3>5-5-6-6--------- 
 
 
e:----------------------------------------- 
b:----------------------------------------- 
g:--------------------7--5--3-------------- 
d:----------------5---7--5--3-------------- 
a:--------3--3-5>7----5--3--1-------------- 
E:--1--3>5--------------------------------- 
 
 
ok there it is, now all that you have to do is figure out all the timing and mabey picking but i am very confident in my tab. 
 
Any coments please email me at: 
 
[email protected] 
 

	  

No existe una video leccione para esta canción

request
LosAcordes
Buscar
auto avanzar rasgueos aumentar disminuir cambiar color esconder acordes gráficos
losacordes exhibir acordes losacordes youTube video losacordes ocultar tabs losacordes ir hacia arriba losacordes