Toby Keith

Início > Toby Keith > acordes

I Love This Bar (complete, Guitar, Steel, Organ) Tablatura

Toby Keith

Dificultad:Ningún gradoNingún grado

tuner correct add songbook print version text version salvar en e-mail
acordesukuleletablaturabajobateríaarmónicaflautacavacopiano Guitar Pro
acordes

I Love This Bar (complete, Guitar, Steel, Organ)

	   
 
Intro - D 
E-7-5--pbr----bh---|-(0:13)------------|--3-3\2-----steel---|--------------| 
B-----(7)5---5(7)--|--elec.------------|3-----------5\3/5-3-|-1-x-1---1/3--| 
G----------2-------|-------------------|-(0:15)---------------|---2---2------| 
D------------------|-----0-------------|----------------------|--------------| 
A?elec.------------|-0h2---2p0--b-r----|------0h20h2-b-r----|--elec.-------| 
D-(0:08)-----------|-----------2(3)2-0-|0~--elec.---2(3)2-0-|-(0:19)-------| 
 
Verse I 
(D) We got winners, we got (A) losers, (G) chain smokers and (D) boozers, 
And we got (D) yuppies, we got (A) bikers, we got, (G) thirsty hitch(A)hikers, 1 
And the (Bm) girls next door dress (A) up like movie (G) stars, 2 
Hmm, hmm, (Em) hmm, (F#m) hmm, (G) hmm, I (A) love this (D) bar, 34 
 
Riffs 
E----------------|---------------------|--------------|-(4, 0:55)-----| 
B-5/7-5p4p3------|-----8----6----------|-10\8-10-8-7--|--elec.--------| 
G-----------4/7--|-/7----7----7-9-7-8--|-11\9-10-9-7--|---------------| 
D----------------|---------------------|--------------|---------------| 
A--steel---------|-organ---------------|-organ--------|-0-2-0--b-r----| 
D-(1, 0:38)------|-(2, 0:43)-----------|-(3, 0:52)----|-------2(3)2-0-| 
 
 
Verse II 
We got cowboys, 5 we got truckers, 6 broken-hearted fools and suckers, 7 
An' we got 8 hustlers, we got fighters, early birds and all nighters, 9 
And the veterans talk about their battle scars, 10 
Hmm, hmm, hmm, hmm, hmm, I love this bar, 11 
 
Riffs- all elec. except first 
E--------------|-5-------------|------------------|------------------------------------| 
B-/7\5/7\5-5\3-|-x--b-r--------|-3----------------|------------------------------------| 
G--------------|-x-4(5)4-2-2/4-|---4p2------------|-x-x-x--------------------2---------| 
D--------------|---------------|-------2p0-0--bh--|-2-4-2-0--b-r-----------------------| 
A--steel-------|---------------|-------------4(5)-|---------2(3)2-0--0-0h2/4?--3p2p0---| 
D-(5, 0:56)----|-(6, 0:58)-----|-(7, 1:02)--------|-(8, 1:05)------------------------5-| 
 
E--------2------------|-----7--b-r-------------|-(11, 1:25)---------| 
B--bh--2---5-pbr------|-------5(7)5\3----2---0-|--------------------| 
G-4(5)-------(5)4p2/4-|-4/7------------4-3-2-0-|--------------------| 
D---------------------|------------------------|--------------------| 
A---------------------|------------------------|-0h2-0-x-x--b-r-----| 
D-(9, 1:10)-----------|-(10, 1:17)-------------|-------2-2-2(3)2-0--| 
 
 
Chorus 
I love this (Bm) bar, 12 it's my kind (D) place, 13 
Just (E7) walkin? through the front door, puts a (A) big smile 14 on my face, 
It ain't too (Bm) far, 15 come as you (D) are, (G) 
Hmm, hmm, (Em) hmm, (F#m) hmm, (G) hmm, I (A) love this (D) bar, 1617 
 
Riffs 
E-7-/5-7-5-5(7)-|----------------------------------------------| 
B-----------bh--|-5/7-5-7\5-3-5(7)p3-5(7)p3-5/7\5-3---/3-----9-| 
G---------------|----------------------------------/4----6/9---| 
D---------------|----------------------------------------------| 
A--steel--------|--steel---------------------------------------| 
D-(12, 1:30)----|-(13, 1:34)-----------------------------------| 
 
E-elec.------------|-elec.------|--bh-----------|-(17, 2:01)------| 
B---------5/7-7\5~-|------------|-5(6)-3-5-5-3--|--elec.----------| 
G---x---x----------|-/4-2-x-4~--|---------------|-----------------| 
D-7-5-7-5----------|------4-----|---------------|-0---------------| 
A------------------|------------|--organ--------|---2-0----b-r----| 
D-(14, 1:42)-------|-(15, 1:46)-|-(16, 1:59)----|-------4-2(3)2-0-| 
 
 
Verse III:  dobro and steel- maybe later! 
I've seen short skirts, we've got high-techs, blue collar boys and rednecks, 
And we got lovers, lots of lookers, I've even seen dancin? girls and hookers, 
And we like to drink our beer from a mason jar, 
Hmm, hmm, hmm, hmm, hmm, I love this bar, 
 
Solo 
E-(2:34)---------------|-(2:36)----------------------| 
B?elec.----------------|-steel-----b--r--------------| 
G-----------2----------|--------7-9(11)9-7--bh---r---| 
D-----0-2/4---4\2p0----|-/9-7-9------------7(9)(9)7--| 
A-0-2---------------2--|-----------------------------| 
D-D-------------Bm-|-----------------------------| 
 
E-(2:40)-----------bh--5-----5----------|-/14-14-12-10-/14/12-10------------| 
B?elec.-----------5(7)---5h7---7p5\3----|------------------------12---------| 
G--b-r----------7--------------------4--|---------------------------9-7-9-7-| 
D-2(3)2-0---2/7-------------------------|-----------------------------------| 
A---------2-----------------------------|--steel----------------------------| 
D-D------------------------------Bm-|-(2:45)----------------------------| 
 
E-(2:48)-------------------------------------| 
B?elec.--------------------------------------| 
G--bh---bh---bh----------x-x-----------------| 
D-6(7)-4(5)-2(3)-0-----0-0-0-2/4-2-0--b-r----| 
A------------------0h2---------------2(3)2-0-| 
D-D-------------------------------------A| 
 
Bridge 
I like my (A) truck, (I like my truck), I like my (D) girlfriend, (I like my girlfriend), 
I like to (E7) take her out to dinner, I like a (A) movie now and (A7) then, 
 
Chorus II 
But I love this bar, 18 it's my kind place,  
Just trollin' around the dance floor, puts a big smile on my face, 19 
No cover charge, 20 come as you 21 are, 
Hmm, hmm, hmm, hmm, hmm, I love this bar, 22 
Hmm, hmm, hmm, hmm, hmm, I just love this old bar. 23 
 
Chorus II riffs: 
E-/7-/5-7-5-5(7)-|------------|-7-5--pbr----b-------|------10-----------------| 
B------------bh--|-/7-6\5-----|-----(7)5-3-5(7)-3-3-|-3/10----12-10-----------| 
G----------------|------------|---------------------|---------------9p7-9p7-7-| 
D----------------|------------|---------------------|-------------------------| 
A--steel---------|--steel-----|--elec.--------------|--elec.------------------| 
D-(18, 3:13)-----|-(19, 3:26)-|-(20, 3:29)----------|-(21, 3:32)--------------|  
 
E-(22, 3:42)-----------------------|-(23, 3:49)---------| 
B?elec.----------------------------|--------------------| 
G--b-r-----------------------------|--------------------| 
D-2(3)2-0------------------------0-|-----0--------------| 
A---------2-0--b-r-----------0-2---|-0h2---2-0--b-r-----| 
D-------------2(3)2-0--2-3-4-------|-----------2(3)2-0--| 
 

	  

No existe una video leccione para esta canción

request
Aumentar uno tonoAumentar uno tono
Aumentar uno semi-tonoAumentar uno semi-tono
Disminuir uno semi-tonoDisminuir uno semi-tono
Disminuir uno tonoDisminuir uno semi-tono
LosAcordes
Buscar
auto avanzar rasgueos aumentar disminuir cambiar color esconder acordes gráficos
losacordes exhibir acordes losacordes youTube video losacordes ocultar tabs losacordes ir hacia arriba losacordes