Toby Keith

Início > Toby Keith > acordes

Does That Blue Moon Ever Shine On You (lead) Tablatura

Toby Keith

Dificultad:Ningún gradoNingún grado

tuner correct add songbook print version text version salvar en e-mail
acordesukuleletablaturabajobateríaarmónicaflautacavacopiano Guitar Pro
acordes

Does That Blue Moon Ever Shine On You (lead)

	  Symbols: 
/ or \ = Slide in/out 
~ = Vibrato 
H = Hammer On 
P = Pull Off 
 
 
E|-----------------------------------------------------P----------------| 
A|---------------------12-13~~13\---/13--/15--/12----12-11----11--------| 
D|---------------12/14-------------------------------------12----12-12~~| 
G|---------12-14--------------------------------------------------------| 
B|---12/14--------------------------------------------------------------| 
E|----------------------------------------------------------------------| 
 
E|---------------------------------------------------------5/10~~\------| 
A|----------P-H-----P-H----P-H-----------------------5-7-8--------------| 
D|---/12--10-9-10--9-8-9--7-6-7------------7-6-4-6-7--------------------| 
G|--------------------------------/7~~-5-7------------------------------| 
B|----------------------------------------------------------------------| 
E|----------------------------------------------------------------------| 
 
 
Please rate or comment, and let me know how I did here,  
or if I should just stick to playing,  
and let others do the tabbing,hehe. 
 

	  

No existe una video leccione para esta canción

request
LosAcordes
Buscar
auto avanzar rasgueos aumentar disminuir cambiar color esconder acordes gráficos
losacordes exhibir acordes losacordes youTube video losacordes ocultar tabs losacordes ir hacia arriba losacordes