Toby Keith

Início > Toby Keith > acordes

Courtesy Of The Red White And Blue(2) Tablatura

Toby Keith

Dificultad:AdelantadoAdelantado

tuner correct add songbook print version text version salvar en e-mail
acordesukuleletablaturabajobateríaarmónicaflautacavacopiano Guitar Pro
acordes

Courtesy Of The Red White And Blue(2)

	   with distortion: 
 
 
 E------------------------------10----9-----7-------7----| 
 B-------------------------------------------6br------7--| 
 G---------------7------2--9/11---7/9---6/7-------7------| 
 D-------------------------------------------------------| 
 A-0-5-7-5-7/9-----2br0----------------------------------| 
 E-------------------------------------------------------| 
 
  
 
 E-------------------------------------------------------| 
 B-----------------------10------------------------------| 
 G-7--9-9br-7--9br-7-9bh----9(still bent up)-------------|                
 D-------------------------------------------------------|                 
 A-------------------------------------------------------|               
 E-------------------------------------------------------| 
 
  
 
 E-------------------------------------------------------| 
 B-------------------------------------------------------| 
 G---9br-4br-2-------------------------------------------| 
 D-7-----------4-2---------------------------------------| 
 A-----------------2b-0----------------------------------| 
 E-------------------------------------------------------| 
 
 
 
 
 *Note: For more explanation on the techniques used in this tab 
        email me or pm me at [email protected] 
 
 
	  

No existe una video leccione para esta canción

request
LosAcordes
Buscar
auto avanzar rasgueos aumentar disminuir cambiar color esconder acordes gráficos
losacordes exhibir acordes losacordes youTube video losacordes ocultar tabs losacordes ir hacia arriba losacordes