Toby Keith

Início > Toby Keith > acordes

Courtesy Of The Red White And Blue (solo) Tablatura

Toby Keith

Dificultad:IntermedioIntermedio

tuner correct add songbook print version text version salvar en e-mail
acordesukuleletablaturabajobateríaarmónicaflautacavacopiano Guitar Pro
acordes

Courtesy Of The Red White And Blue (solo)

	  Solo 
 
A     D               A 
...blue" 
----------------------------------------------------- 
------------------3---------------------------------- 
------------------------------------2---------------- 
------0---2-0-2/4------------------------------------ 
--0^2-----------------0-2b3r2^0-3/4------------------ 
----------------------------------------------------- 
 
Bm                       F# 
                         * bend using index finger 
-------10-----9-------------------------------------- 
----------------------12-------------12--11\--------- 
-9/11----7/9-------------9b11~~~~--------11\--------- 
----------------10/12-------------11----------------- 
----------------------------------------------------- 
----------------------------------------------------- 
 
G                   D 
              *pre bend - in other words, bend the note (9b11), then pick the string and release 
----------------------------------------------------- 
--------------------------10------------------------- 
-7--9-9-7~~---11r9^7-9b11----9b11~~~~~~-------------- 
----------------------------------------------------- 
----------------------------------------------------- 
----------------------------------------------------- 
 
A 
 
----------------------------------------------------- 
----------------------------------------------------- 
---9b11b9--6b7r6------------------------------------- 
-7----------------9b11r9-7--------------------------- 
---------------------------/7-------7---------------- 
------------------------------7b8r7-5---------------- 
 
 
 
OR if you'd rather play that last riff in this position: 
----------------------------------------------------- 
---5b7r5--2b3r2-------------------------------------- 
-2---------------4b6r4-2----------------------------- 
-------------------------/2-------2------------------ 
----------------------------2b3r2-0------------------ 
----------------------------------------------------- 
 
 
 
 

	  

No existe una video leccione para esta canción

request
Aumentar uno tonoAumentar uno tono
Aumentar uno semi-tonoAumentar uno semi-tono
Disminuir uno semi-tonoDisminuir uno semi-tono
Disminuir uno tonoDisminuir uno semi-tono
LosAcordes
Buscar
auto avanzar rasgueos aumentar disminuir cambiar color esconder acordes gráficos
losacordes exhibir acordes losacordes youTube video losacordes ocultar tabs losacordes ir hacia arriba losacordes