Toby Keith

Início > Toby Keith > acordes

Beer For My Horses(intro) Tablatura

Toby Keith

Dificultad:Ningún gradoNingún grado

tuner correct add songbook print version text version salvar en e-mail
acordesukuleletablaturabajobateríaarmónicaflautacavacopiano Guitar Pro
acordes

Beer For My Horses(intro)

	  Any Questions? E-mail me at [email protected] 
 
**** all notes are relative to capo 
 
E-------5-5-5-5-5-5-5--5-5-5-5-4b~~~~~-5-5-5-5-5-5-5-------- 
B-------5-4-3----------5-4-3-----------5-4-3---------------- 
G--0h2--------5-2---2--------5---------------5-2---2--5p4p2- 
D--0h2------------5------------------------------5---------- 
A--0-------------------------------------------------------- 
E----------------------------------------------------------- 
 
E---------------------0------------------------------------- 
B---------------------2------------------------------------- 
G--2------------------2------------------------------------- 
D-5--5p4p2--2---------2------------------------------------- 
A----------5--3p2p0---0------------------------------------- 
E-------------------3--------------------------------------- 
 
PLEASE COMMENT AND RATE!! 
 

	  

No existe una video leccione para esta canción

request
LosAcordes
Buscar
auto avanzar rasgueos aumentar disminuir cambiar color esconder acordes gráficos
losacordes exhibir acordes losacordes youTube video losacordes ocultar tabs losacordes ir hacia arriba losacordes