Toby Keith

Início > Toby Keith > acordes

American Soldier (solo) Tablatura

Toby Keith

Dificultad:ExpertoExperto

tuner correct add songbook print version text version salvar en e-mail
acordesukuleletablaturabajobateríaarmónicaflautacavacopiano Guitar Pro
acordes

American Soldier (solo)

	  not exactly right but very close. 
i'll add a link to a sound clip very soon. 
 
 
key: 
~~~~ = vibrato		b = whole bend 
P.M. = palm mute	/ = slide up 
\    = slide down 
 
 
 
     ~~~~~~~~~      ~~~~~~~~~        	      
E -------------------------------------------------9-10-12- 
B ----------------------------------------------10--------- 
G --------------------------------------------9------------ 
D ---9--------9---9/11-------------------9-11-------------- 
A -7------------7----------------9-11-12------------------- 
E -----------------------------12-------------------------- 
                               P.M...| 
 
 
                               ~~~~~~~~~~~~~ 
E -10---10-12---------------------------------------------- 
B ------------b12-----------10-10--------------9-10-12-10-- 
G ------------------------------------------11------------- 
D --------------------------------------------------------- 
A --------------------------------------------------------- 
E --------------------------------------------------------- 
 
 
 
            ~~~~~ 
E -b12------------12--------14----------12----12/14--\12-10 
B -------10-10-------10--10----10-10-10----10-------------- 
G --------------------------------------------------------- 
D --------------------------------------------------------- 
A --------------------------------------------------------- 
E --------------------------------------------------------- 
 
 
 
   ~~~~~~~~~~ 
E -12------------------------------------------------------ 
B --------------------------------------------------------- 
G --------------------------------------------------------- 
D --------------------------------------------------------- 
A --------------------------------------------------------- 
E --------------------------------------------------------- 
 

	  

No existe una video leccione para esta canción

request
LosAcordes
Buscar
auto avanzar rasgueos aumentar disminuir cambiar color esconder acordes gráficos
losacordes exhibir acordes losacordes youTube video losacordes ocultar tabs losacordes ir hacia arriba losacordes