Title Fight

Início > Title Figh... > acordes

Safe In Your Skin (acoustic) Tablatura

Title Fight

Dificultad:ExpertoExperto

victborges

tuner correct add songbook print version text version salvar en e-mail
acordesukuleletablaturabajobateríaarmónicaflautacavacopiano Guitar Pro
acordes

Safe In Your Skin (acoustic)

	  
(0:24) 

e|---------------------------------------| 
B|---------------0h3p0-------------------| 
G|--------0h2-2--------0-----------------| 
D|-2-2-2--0h2-2----------2---------------| 
A|-3-3-3--0--------------3(ring)---------| 
E|---------------------------------------| 

e|---------------------------------------| 
B|---------------0h3p0-------------------| 
G|--------0h2-2--------0-----------------| 
D|-2-2-2--0h2-2----------2---------------| 
A|-3-3-3--0--------------3(ring)---------| 
E|---------------------------------------| 

e|---------------------------------------| 
B|---------------0h3p0-------------------| 
G|--------0h2-2--------0-----------------| 
D|-2-2-2--0h2-2----------2--22222222-----| 
A|-3-3-3--0--------------3--00000000-----| 
E|---------------------------------------| 

e|---------------------------------------| 
B|---------------0h3p0--------****-------| 
G|--------0h2-2--------0-----------------| 
D|-2-2-2--0h2-2----------2---------------| 
A|-3-3-3--0--------------3---2----3------| 
E|---------------------------0----1------| 

(0:57) 
e|---------------------------------------| 
B|-------------------0-------------------| 
G|-0-0-0-0---------0-0-0-0---------------| 
D|-7-5-7s9---------4---4-2---------------| 
A|---------------------------------------| 
E|---------------------------------------| 

e|---------------------------------------| 
B|----------------0----------------------| 
G|-0-0-0-0------0-0-0-0------------------| 
D|-7-5-7s9------4---4-2------------------| 
A|---------------------------------------| 
E|---------------------------------------| 

e|---------------------------------------| 
B|-------------------0-------------------| 
G|-0-0-0-0---------0-0-0-0---------------| 
D|-7-5-7s9---------4---4-2---------------| 
A|---------------------------------------| 
E|---------------------------------------| 

e|---------------------------------------| 
B|----------------0----------------------| 
G|-0-0-0-0------0-0-0-0------------------| 
D|-7-5-7s9------4---4-2------------------| 
A|---------------------------------------| 
E|---------------------------------------| 

e|---------------------------------------| 
B|-------------------0-------------------| 
G|-0-0-0-0---------0-0-0-0---------------| 
D|-7-9-7-9---------4---4-2---------------| 
A|---------------------------------------| 
E|---------------------------------------| 

e|---------------------------------------| 
B|----------------0----------------------| 
G|-0-0-0-0------0-0-0-0------------------| 
D|-7-5-7s9------4---4-2------------------| 
A|---------------------------------------| 
E|---------------------------------------| 

e|-----------------------| 
B|-3s5-------------------| 
G|-----3p0-3s4-----------| 
D|-------------5---------| 
A|-----------------------| 
E|-----------------------| 
 
	  

No existe una video leccione para esta canción

request
LosAcordes
Buscar
auto avanzar rasgueos aumentar disminuir cambiar color esconder acordes gráficos
losacordes exhibir acordes losacordes youTube video losacordes ocultar tabs losacordes ir hacia arriba losacordes