Therion

Início > Therion > acordes

To Mega Therion Tablatura

Therion

Dificultad:Ningún gradoNingún grado

HEAVY MASTER

tuner correct add songbook print version text version salvar en e-mail
acordesukuleletablaturabajobateríaarmónicaflautacavacopiano Guitar Pro
acordes

To Mega Therion

	  BIEN ESTA ROLA ESTA SAFIL (VERY EASY)  

INTRO X2 

|--------------------| 
|--------------------| 
|--------------------| 
|---------------4----| 
|-2--22--2--22--2----| 
|-0--00--0--00-------| 
  .  ..  .  .. 
VERSE 
                                      X2 
|--------------------------------------| 
|--------------------------------------|----------------------------------------------| 
|--------------------------------------|-------1--1--4--444444544444888444444---------|                              
|------------------4444444444444-------|-------1--1--2--22222223222266622222223222666-| 
|--2-22-2-22-2-22--2222222222222-------|--2--2----------------------------------------| 
|--0-00-0-00-0-00----------------3-2-0-|--0--0----------------------------------------| 
   . .. . .. . .. 

INTRO 
VERSE 

RIFF 1 X3 
|--------- 
|----------- 
|--------- 
|------------ 
|---------44----------44----------22---------22-------22-55-22----22-55-22------------44-----------44----| 
|---22-55----55-22-55----55-11-44----44-11-44---44-44----------44----------44---22-55----22--22-55----22-| 

RIFF2 X2 
|-----| 
|-----| 
|---555-----------------------------------| 
|---333-555-777-----777------5-55555555---| 
|-------333-555-777-555-777--3-33333333---| 
|---------------555-----555---------------| 

RIFF3                         X2 
|--151412-151412---------------|------------------------12--------------------101214-------- 
|----------------151412-151412-|---12-14-12-11-11-12-14----14-12-11-12--111214---------------------------------- 
|--------- 
|--------- 
|--------- 
|--------- 

RIFF4X2 
|---------- 
|--777---------------------------------------------- 
|-----666-777-----777-----777-----6-66666--9-7-6---- 
|-------------777-----777-----777------------------- 
|---------- 
|---------- 

INTRO X1 
VERSE 

VERSE2 X2 
|------- 
|------- 
|------- 
|------------------0-00000------------------------------------------ 
|----------0-00000---------2222222----------------------------------------- 
|--0-00000-------------------------3-2-0------------------------------- 

SOLO 
|---12--1212-10-12---10---------------------------------------------- 
|------------------13---12-13-10-12-13--1313-1213-1012-8h10-8h10-10/12--12/15/13-12-10-10/8-8-7--875-| 
|---------------- 
|---------------- 
|---------------- 
|---------------- 

BIEN ESO ES TODO  
DEDICADO A FRYDA Y A TODOS MIS AMIGOS QUE SE VAN  
ADIOS 
POLA 


	  

No existe una video leccione para esta canción

request
LosAcordes
Buscar
auto avanzar rasgueos aumentar disminuir cambiar color esconder acordes gráficos
losacordes exhibir acordes losacordes youTube video losacordes ocultar tabs losacordes ir hacia arriba losacordes