Therion

Início > Therion > acordes

Temple Of New Jerusalem Tablatura

Therion

Dificultad:Ningún gradoNingún grado

joaoewerton

tuner correct add songbook print version text version salvar en e-mail
acordesukuleletablaturabajobateríaarmónicaflautacavacopiano Guitar Pro
acordes

Temple Of New Jerusalem

	  
Verse 
                          x3 
e|-------------|------------|------------------| 
B|-------------|------------|------------------| 
G|-2-2-2-2--3-2|2-2-2-2-----|2--0---2--0--2----| 
D|-2-2-2-2--3-2|2-2-2-2-----|2--0---2--0--2----| 
A|-0-0-0-0-01-0|0-0-0-0-3-2-|0--0---0--0--0-3-2| 
E|-------------|--------1-0-|---------------1-0| 
    * *   *     * * * * 
You could also play this  
e|--------------|-------------|-------------------| 
B|--------------|-------------|-------------------| 
G|-9-----9--10-9|-------------|9--7---9--7--9-----| 
D|-7-----7--8--7|--------10-9-|7--5---7--5--7-10-9| 
A|---0-0---0----|0-0-0-0-8--7-|---------------8--7| 
E|--------------|-------------|-------------------| 
     * *   *     * * * *       
e|-------|-------|-------|-------| 
B|-------|-------|-------|-------| 
G|-------|-------|-------|-------| 
D|-------|-------|-------|-------| 
A|3--2--3|7--5--7|3--2--3|5--5--5| 
E|1--0--1|7--5--7|1--0--1|3--3--3| 

You could also play this 
e|---------|-------|---------|--------| 
B|---------|-------|---------|--------| 
G|---------|-------|---------|--------| 
D|10--9--10|9--7--9|10--9--10|12-12-12| 
A|8---7--8-|7--5--7|8---7--8-|10-10-10| 
E|---------|-------|---------|--------| 

e|-------------|------------|------------------| 
B|-------------|------------|------------------| 
G|-2-2-2-2--3-2|2-2-2-2-----|2--0---2--0--2----| 
D|-2-2-2-2--3-2|2-2-2-2-----|2--0---2--0--2----| 
A|-0-0-0-0-01-0|0-0-0-0-3-2-|0--0---0--0--0-3-2| 
E|-------------|--------1-0-|---------------1-0| 
    * *   *     * * * * 
You could also play this  
e|--------------|-------------|-------------------| 
B|--------------|-------------|-------------------| 
G|-9-----9--10-9|-------------|9--7---9--7--9-----| 
D|-7-----7--8--7|--------10-9-|7--5---7--5--7-10-9| 
A|---0-0---0----|0-0-0-0-8--7-|---------------8--7| 
E|--------------|-------------|-------------------| 
     * *   *     * * * *       
e|-------|-------|-------|-------| 
B|-------|-------|-------|-------| 
G|-------|-------|-------|-------| 
D|-------|-------|-------|-------| 
A|3--2--3|7--5--7|3--2--3|5--5--5| 
E|1--0--1|7--5--7|1--0--1|3--3--3| 

You could also play this 
e|---------|-------|---------|--------| 
B|---------|-------|---------|--------| 
G|---------|-------|---------|--------| 
D|10--9--10|9--7--9|10--9--10|12-12-12| 
A|8---7--8-|7--5--7|8---7--8-|10-10-10| 
E|---------|-------|---------|--------| 

Chorusx2 
e|------------------|------------------|------------------|------------| 
B|------------------|------------------|------------------|------------| 
G|------------------|------------------|------------------|------------| 
D|2-----------------|2-----------------|2-----------------|2----------2| 
A|0--0-2-3-2-0-2-3-2|0--0-2-3-2-0-2-3-5|0--0-2-3-2-0-2-3-5|0-----3--5-0| 
E|---------------1-0|---------------1-3|---------------1-0|---1--1--3--| 

You could also play this(u can also play everything as powerchords) 
e|--------------------|---------------------|--------------------|-------------| 
B|--------------------|---------------------|--------------------|-------------| 
G|9-------------------|9--------------------|9-------------------|------------9| 
D|7--7-9-10-9-7-9-10-9|7--7-9-10-9-7-9-10-12|7--7-9-10-9-7-9-10-9|7------9-12-7| 
A|----------------8--7|----------------8--10|----------------8--7|----8--7-10--| 
E|--------------------|---------------------|--------------------|-------------| 

Verse 
                          x3 
e|-------------|------------|------------------| 
B|-------------|------------|------------------| 
G|-2-2-2-2--3-2|2-2-2-2-----|2--0---2--0--2----| 
D|-2-2-2-2--3-2|2-2-2-2-----|2--0---2--0--2----| 
A|-0-0-0-0-01-0|0-0-0-0-3-2-|0--0---0--0--0-3-2| 
E|-------------|--------1-0-|---------------1-0| 
    * *   *     * * * * 
You could also play this  
e|--------------|-------------|-------------------| 
B|--------------|-------------|-------------------| 
G|-9-----9--10-9|-------------|9--7---9--7--9-----| 
D|-7-----7--8--7|--------10-9-|7--5---7--5--7-10-9| 
A|---0-0---0----|0-0-0-0-8--7-|---------------8--7| 
E|--------------|-------------|-------------------| 
     * *   *     * * * *       
e|-------|-------|-------|-------| 
B|-------|-------|-------|-------| 
G|-------|-------|-------|-------| 
D|-------|-------|-------|-------| 
A|3--2--3|7--5--7|3--2--3|5--5--5| 
E|1--0--1|7--5--7|1--0--1|3--3--3| 

You could also play this 
e|---------|-------|---------|--------| 
B|---------|-------|---------|--------| 
G|---------|-------|---------|--------| 
D|10--9--10|9--7--9|10--9--10|12-12-12| 
A|8---7--8-|7--5--7|8---7--8-|10-10-10| 
E|---------|-------|---------|--------| 

Chorusx2 
e|------------------|------------------|------------------|------------| 
B|------------------|------------------|------------------|------------| 
G|------------------|------------------|------------------|------------| 
D|2-----------------|2-----------------|2-----------------|2----------2| 
A|0--0-2-3-2-0-2-3-2|0--0-2-3-2-0-2-3-5|0--0-2-3-2-0-2-3-5|0-----3--5-0| 
E|---------------1-0|---------------1-3|---------------1-0|---1--1--3--| 

You could also play this(u can also play everything as powerchords) 
e|--------------------|---------------------|--------------------|-------------| 
B|--------------------|---------------------|--------------------|-------------| 
G|9-------------------|9--------------------|9-------------------|------------9| 
D|7--7-9-10-9-7-9-10-9|7--7-9-10-9-7-9-10-12|7--7-9-10-9-7-9-10-9|7------9-12-7| 
A|----------------8--7|----------------8--10|----------------8--7|----8--7-10--| 
E|--------------------|---------------------|--------------------|-------------| 

Solox2 
e|------------------------|---------------------| 
B|------------------------|---------------------| 
G|------------------------|---------------------| 
D|9-9--12-12--9-9--12-12-7|---------------------| 
A|7-7--10-10--7-7--10-10-5|5-5--7-7--5-5--7-7--9| 
E|------------------------|3-3--5-5--3-3--5-5--7| 

Chorusx2 
e|------------------|------------------|------------------|------------| 
B|------------------|------------------|------------------|------------| 
G|------------------|------------------|------------------|------------| 
D|2-----------------|2-----------------|2-----------------|2----------2| 
A|0--0-2-3-2-0-2-3-2|0--0-2-3-2-0-2-3-5|0--0-2-3-2-0-2-3-5|0-----3--5-0| 
E|---------------1-0|---------------1-3|---------------1-0|---1--1--3--| 

You could also play this(u can also play everything as powerchords) 
e|--------------------|---------------------|--------------------|-------------| 
B|--------------------|---------------------|--------------------|-------------| 
G|9-------------------|9--------------------|9-------------------|------------9| 
D|7--7-9-10-9-7-9-10-9|7--7-9-10-9-7-9-10-12|7--7-9-10-9-7-9-10-9|7------9-12-7| 
A|----------------8--7|----------------8--10|----------------8--7|----8--7-10--| 
E|--------------------|---------------------|--------------------|-------------| 

************************************ 

| *  Palm mute 

************************************ 
	  

No existe una video leccione para esta canción

request
LosAcordes
Buscar
auto avanzar rasgueos aumentar disminuir cambiar color esconder acordes gráficos
losacordes exhibir acordes losacordes youTube video losacordes ocultar tabs losacordes ir hacia arriba losacordes