The Wannadies

Início > The Wannad... > acordes

Kill You Tablatura

The Wannadies

Dificultad:Ningún gradoNingún grado

LINEKERS

tuner correct add songbook print version text version salvar en e-mail
acordesukuleletablaturabajobateríaarmónicaflautacavacopiano Guitar Pro
acordes

Kill You

Tono:  A Más
Kill You Key EE
Kill You Key FF
Kill You Key F#F#
Kill You Key GG(Disminuir uno tono)
Kill You Key G#G#(Disminuir uno semi-tono)
Kill You Key AA(tono original)
Kill You Key A#A#(Aumentar uno semi-tono)
Kill You Key BB(Aumentar uno tono)
Kill You Key CC
Kill You Key C#C#
Kill You Key DD
Kill You Key D#D#
	  
Intro 
         
 guitar 1 
e|-------------------------------------------------| 
B|-------------------------------------------------| 
G|---11-------9-9-----11-11---------9-9------------| 
D|---11---11--9-9--9--11-11----11---9-9-----9------| 
A|---9----11--7-7--9--9--9-----11---7-7-----9------| 
E|--------9--------7-----------9------------7------| 


(guitar 2 - tacet) 


 guitar 1 
e|-------------------------------------------------| 
B|-------------------------------------------------| 
G|---11-------9-9-----11-11---------9-9------------| 
D|---11---11--9-9--9--11-11----11---9-9-----9------| 
A|---9----11--7-7--9--9--9-----11---7-7-----9------| 
E|--------9--------7-----------9------------7------| 


 guitar 2  
e|-------------------------------------------------| 
B|-------------------------------------------------| 
G|-11-11-11-11-11-11-11-11-11-11-11-11-11-11-11-11-| 
D|-11-11-11-11-11-11-11-11-11-11-11-11-11-11-11-11-| 
A|-9--9--9--9--9--9--9--9--9--9--9--9--9--9--9--9--| 
E|-------------------------------------------------| 


       both guitars play riff one twice, then: 

 both guitars 
e|-------------------------------------------------| 
B|-------------------------------------------------| 
G|---11---------9-----11---------9-----------------|   
D|---11---11----9--9--11---11----9--9--------------| 
A|---9----11----7--9--9----11----7--9--------------| 
E|--------9--------7-------9--------7--------------|(x2) 
     OWW! 


verse 1 

 guitar 1  
e|-------------------------------------------------| 
B|-------------------------------------------------| 
G|---11------------------------11------------------| 
D|---11------------------------11------------------| 
A|---9---------------------------------------------| 
E|-------------------------------------------------| 
     How   am  I  s'posed  to  reach  the   su-un? 
      

 guitar 1  
e|-------------------------------------------------| 
B|-------------------------------------------------| 
G|---11------------------------11------------------| 
D|---11------------------------11------------------| 
A|-------------------------------------------------| 
E|-------------------------------------------------| 
     All    this    anguish    bringin'   me   dow- 



 guitar 1        both guitars 
e|-------------------------------------------------| 
B|-------------------------------------------------| 
G|---x--x--------7-7-7-7-7-7-7-7-7-7-7-7-7-7-7-7-7-| 
D|---x--x--------7-7-7-7-7-7-7-7-7-7-7-7-7-7-7-7-7-| 
A|---x--x--------5-5-5-5-5-5-5-5-5-5-5-5-5-5-5-5-5-| 
E|-------------------------------------------------| 
    -wwwn.        Somebod  -  y,              help   


 both guitars  
e|-------------------------------------------------| 
B|-------------------------------------------------| 
G|---9-9-9-9-9-9-9-9-9-9-9-9-9-9-9-9-9-9-9-9-9-9-9-| 
D|---9-9-9-9-9-9-9-9-9-9-9-9-9-9-9-9-9-9-9-9-9-9-9-| 
A|---7-7-7-7-7-7-7-7-7-7-7-7-7-7-7-7-7-7-7-7-7-7-7-| 
E|-------------------------------------------------| 
     me,      an   -    y   -   one     let     me     


 guitar 1 
e|-------------------------------------------------| 
B|-------------------------------------------------| 
G|---11-------9-9-----11-11---------9-9------------| 
D|---11---11--9-9--9--11-11----11---9-9-----9------| 
A|---9----11--7-7--9--9--9-----11---7-7-----9------| 
E|--------9--------7-----------9------------7------| 
     out! 

repeat verse once more then: 

 guitar 1 
e|-------------------------------------------------| 
B|-------------------------------------------------| 
G|---11-------9-9-----11-11---------9-9------------| 
D|---11---11--9-9--9--11-11----11---9-9-----9------| 
A|---9----11--7-7--9--9--9-----11---7-7-----9------| 
E|--------9--------7-----------9------------7------| 
     go!              go! 


 guitar 1 
e|-------------------------------------------------| 
B|-------------------------------------------------| 
G|---11-------9-9-----11-11-11-11-11-11-x--x-------| 
D|---11---11--9-9--9--11-11-11-11-11-11-x--x-------| 
A|---9----11--7-7--9--9--9--9--9--9--9--x--x-------| 
E|--------9--------7-------------------------------| 
     go! 

 guitar 2 
e|-------------------------------------------------| 
B|-------------------------------------------------| 
G|---11~~~~~~~~~~~~~~~~~~~~~~~~~~~~~~~~~~~~~~~-----| 
D|-------------------------------------------------| 
A|-------------------------------------------------| 
E|-------------------------------------------------| 


Chorus 

 both guitars 
e|-------------------------------------------------| 
B|-------------------------------------------------| 
G|-------------------------------------------------| 
D|---7--7--7--7--7--9--9--4--4--4--4--4--4--4--4---| 
A|---7--7--7--7--7--9--9--4--4--4--4--4--4--4--4---| 
E|---5--5--5--5--5--7--7--2--2--2--2--2--2--2--2---| 
        A  c o l d, hard, pain, beat   myself    in- 

  
 both guitars 
e|-------------------------------------------------| 
B|-------------------------------------------------| 
G|-------------------------------------------------| 
D|---7--7--7--7--7--4--4--9--9--9--9--9--x--x--7---| 
A|---7--7--7--7--7--4--4--9--9--9--9--9--x--x--7---| 
E|---5--5--5--5--5--2--2--7--7--7--7--7--x--x--5---| 
    -s a n e      couldn't kill you 


 both guitars 
e|-------------------------------------------------| 
B|-------------------------------------------------| 
G|-------------------------------------------------| 
D|---7--7--7--7--7--9--9--4--4--4--4--4--4--4--4---| 
A|---7--7--7--7--7--9--9--4--4--4--4--4--4--4--4---| 
E|---5--5--5--5--5--7--7--2--2--2--2--2--2--2--2---| 
        A  co l d, clean, pain, beat   myself  in- 

  
 both guitars 
e|-------------------------------------------------| 
B|-------------------------------------------------| 
G|-------------------------------------------------| 
D|---7--7--7--7--7--4--4--9--9--9--9--9--9--9--9---| 
A|---7--7--7--7--7--4--4--9--9--9--9--9--9--9--9---| 
E|---5--5--5--5--5--2--2--7--7--7--7--7--7--7--7---| 
    -s a n e      couldn't kill you 

guitar 1 plays Riff 1 (x4), 
guitar 2 join in after the second time  


verse 2 
(same as verse 1) 


Chorus 2 

same as Chorus 1 exept at the end, after the last B chord (799) 
you play a D powerchord: 

    D 
e|-----| 
B|-----| 
G|--7--| 
D|--7--| 
A|--5--| 
E|-----|   
   
and slide quickly back into: 

guitar 1 plays - riff 1 (x2) and guitar 2 uses pick scrapes over the top. 


Break 

guitar 1 plays riff 1 with palm muting 
guitar 2 uses pick scrapes 


Chorus 1 


followed by riff 1 (x4) then: 


 guitar 1 
e|-------------------------------------------------| 
B|-------------------------------------------------| 
G|---9----x-x--9----x-x--9----x-x--9----x-x--------| 
D|---9----x-x--9----x-x--9----x-x--9----x-x--------| 
A|---7----x-x--7----x-x--7----x-x--7----x-x--------| 
E|-------------------------------------------------| 
     UHH! 

************************************ 
| x  Dead note 
| r  Release 
| t  Tapping 
| ~  Vibrato 
************************************ 
	  

No existe una video leccione para esta canción

request
Aumentar uno tonoAumentar uno tono
Aumentar uno semi-tonoAumentar uno semi-tono
Disminuir uno semi-tonoDisminuir uno semi-tono
Disminuir uno tonoDisminuir uno semi-tono
LosAcordes
Buscar
auto avanzar rasgueos aumentar disminuir cambiar color esconder acordes gráficos
losacordes exhibir acordes losacordes youTube video losacordes ocultar tabs losacordes ir hacia arriba losacordes