The Smiths

Início > The Smiths > acordes

This Charming Man Tablatura

The Smiths

Dificultad:ExpertoExperto

tuner correct add songbook print version text version salvar en e-mail
acordesukuleletablaturabaixobateríaarmónicaflautacavacopiano Guitar Pro
acordes

This Charming Man

Áño: 1984 - Álbum: Best, Volume 1

	  1.Intro

E --9--9--7-7--10--9---7--7-slide---9----12-12------9--------------
B -10-10--9-9--10--10--9--9-slide--10-10----------9----12----------
G  -----------------------------------11--------9------------------
D  ----------------------------------------------------------------
A  ----------------------------------------------------------------
E  ----------------------------------------------------------------

2.Verse

E --------------9-------------------------------------------------- 
B --------10---------10--12--------10-------10/12-12-12-12---------
G --11-11----11---11--------11--11----11-11-11/13-13-13-13--------- 
D ----------------------------------------------------------------- 
A ----------------------------------------------------------------- 
E -----------------------------------------------------------------

3.Riff

E ----------------------------------------------------------------- 
B -----5-----5-5----7--5-----5-----9--9-9--5--7-------------------- 
G --6------------6--------6---------------------------------------- 
D -------7---------------------7----------------------------------- 
A -----------------------------------------------------------------
E -----------------------------------------------------------------

4.Chorus

E -----------------------------9---------9-------------11--------12-
B -------10---------9-------10---10--------9--------10---------9----
G ----11----11----9---9--11------------9---------11----------9------
D -12----------11--------------------9--------12----------11--------
A ------------------------------------------------------------------
E ------------------------------------------------------------------

5.Outro

E -7-slide--9--9--9-7-7-10-9--7-7-slide-9-----12--12--12------------
B -9-slide-10-10-10-9-9-10-10-9-9-slide-10-10-----------------------
G -----------------------------------------11-----------------------
D ------------------------------------------------------------------
A ------------------------------------------------------------------
E ------------------------------------------------------------------

Sequence:
Intro
1.2.5.

Verse
2.3.2.3.2.3.2.3.2.3.2

Chorus
4.5.4.5

Verse
2.3.2.3.2.3.2.3.2.3.2

Outro/Ending
4.5.4.5.4.5.4.5
	  

there is a video lesson for this song
view full video
LosAcordes
Buscar
auto avanzar rasgueos aumentar disminuir cambiar color esconder acordes gráficos
losacordes exhibir acordes losacordes youTube video losacordes ocultar tabs losacordes ir hacia arriba losacordes