The Legend of Zelda

Início > The Legend... > acordes

Ocarina of Time - Windmill Hunt Tablatura

The Legend of Zelda

Dificultad:PrincipiantePrincipiante

HtagBgha

tuner correct add songbook print version text version salvar en e-mail
acordesukuleletablaturabajobateríaarmónicaflautacavacopiano Guitar Pro
acordes

Ocarina of Time - Windmill Hunt

	   Nintendo 64- Zelda: Ocarina of Time- Song of Storms (Winmill Hut) 
 
 
 This is the song heard when you go see that crazy winmill guy 
 2/3 time signature 
 Note the droppage of your bottom string there 
 
 Guitar 1 
 
       |   |   |       |   |   |       |   |   |       |   |   | 
 E||---------------|---------------|---------------|---------------| 
 B||---------------|-------0-------|-------1---1---|-------0-------| 
 G||-------2---2---|-------0-------|-------2---2---|-------0-------| 
 D||-------3---3---|-----2---------|---------------|-----2---------| 
 A||---------------|---------------|---------------|---------------| 
 D||---0-----------|---2-----------|---3-----------|---2-----------| 
 
     |   |   |       |   |   |       |   |   |       |   |   | 
 |---------------|---------------|---------------|---------------| 
 |---------------|-------0-------|-------1---1---|-------0-------| 
 |-------2---2---|-------0-------|-------2---2---|-------0-------| 
 |-------3---3---|-----2---------|---------------|-----2---------| 
 |---------------|---------------|---------------|---------------| 
 |---0-----------|---2-----------|---3-----------|---2-----------| 
 
     |   |   |       |   |   |       |   |   |       |   |   | 
 |---------------|---------------|---------------|---------------| 
 |---------------|-------0-------|-------1---1---|---------------| 
 |-------2---2---|-------0-------|-------2---2---|-------2-------| 
 |-------3---3---|---------------|---------------|-------5-------| 
 |---------------|---------------|---------------|---------------| 
 |---0-----------|---2-----------|---3-----------|---2-----------| 
 
     |   |   |       |   |   |       |   |   |       |   |   | 
 |---------------|---------------|---------------|---------------| 
 |---------------|---------------|---------------|---------------| 
 |-------2---2---|-------2-------|-------2---2---|-------2-------| 
 |-------3---3---|---------------|-------3---3---|---------------| 
 |---1-----------|-------3-------|---1-----------|---0---4-------| 
 |---------------|---3-----------|---------------|---------------| 
 
     |   |   |       |   |   |       |   |   |       |   |   | 
 |---------------|---------------|---------------|---------------| 
 |---------------|-------0-------|-------1---1---|---------------| 
 |-------2---2---|-------0-------|-------2---2---|-------2-------| 
 |-------3---3---|---------------|---------------|-------5-------| 
 |---------------|---------------|---------------|---------------| 
 |---0-----------|---2-----------|---3-----------|---2-----------| 
 
     |   |   |       |   |   |       
 |---------------|---------------|| 
 |---------------|---------------|| 
 |-------2---2---|-------2-------|| ......repeat until you're dizzy 
 |-------3---3---|---------------|| 
 |---1-----------|---0---4-------|| 
 |---------------|---------------|| 
 
 
 
 
 Guitar 2 
 
 
 |---------------|---------------||---------------|---------------| 
 |---------------|---------------||---------------|---------------| 
 |---------------|---------------||---------------|---------------| 
 |---------------|---------------||---------------|---------------| 
 |---------------|---------------||---------------|---------------| 
 |---------------|---------------||---------------|---------------| 
 
 
 |---------------|---------------|---------------|---------------| 
 |---------------|---------------|---------------|---------------| 
 |---------------|---------------|---------------|---------------| 
 |---------------|---------------|---------------|---------------| 
 |---------------|---------------|---------------|---------------| 
 |---------------|---------------|---------------|---------------| 
 
     |   |   |       |   |   |       |   |   |       |   |   | 
 |---------------|---------------|---0-----1-0-1-|---0-----------| 
 |-------3-------|-------3-------|---------------|-----1---------| 
 |---------------|---------------|---------------|-------2-------| 
 |---0-3---------|---0-3---------|---------------|---------------| 
 |---------------|---------------|---------------|---------------| 
 |---------------|---------------|---------------|---------------| 
 
     |   |   |       |   |   |       |   |   |       |   |   | 
 |---------------|---------------|---------------|---------------| 
 |---------------|---------------|---------------|---------------| 
 |---2---------0-|---2-----------|---2---------0-|---------------| 
 |---------0-3---|---------------|---------0-3---|---2-----------| 
 |---------------|---------------|---------------|---------------| 
 |---------------|---------------|---------------|---------------| 
 
     |   |   |       |   |   |       |   |   |       |   |   | 
 |---------------|---------------|---0-----1-0-1-|---0-----------| 
 |-------3-------|-------3-------|---------------|-----1---------| 
 |---------------|---------------|---------------|-------2-------| 
 |---0-3---------|---0-3---------|---------------|---------------| 
 |---------------|---------------|---------------|---------------| 
 |---------------|---------------|---------------|---------------| 
 
     |   |   |       |   |   |       |   |   |       |   |   | 
 |---------------|---------------|---------------|---------------|| 
 |---------------|---------------|---------------|---------------|| 
 |---2---------0-|---2-------2---|---------------|---------------|| 
 |---------0-3---|---------------|---0-----------|---------------|| 
 |---------------|---------------|---------------|---------------|| 
 |---------------|---------------|---------------|---------------|| 
 
 
 Dang! That's good biscuits 
 
 El Beño 
 

	  

No existe una video leccione para esta canción

request
LosAcordes
Buscar
auto avanzar rasgueos aumentar disminuir cambiar color esconder acordes gráficos
losacordes exhibir acordes losacordes youTube video losacordes ocultar tabs losacordes ir hacia arriba losacordes