The Feeling

Início > The Feelin... > acordes

Love It When You Call Tablatura

The Feeling

Dificultad:ExpertoExperto

P!ATD

tuner correct add songbook print version text version salvar en e-mail
acordesukuleletablaturabaixobateríaarmónicaflautacavacopiano Guitar Pro
acordes

Love It When You Call

	  Intro 
e------------------------------------------------------------| 
B------------------------------------------------------------| 
G-----------5--5---------------------------------------------| 
D----5--5---5--5---2--2---3--3---5--5---7--7---2--2---3--3---| 
A----5--5---3--3---2--2---3--3---5--5---7--7---2--2---3--3---| 
E----3--3----------0--0---1--1---3--3---5--5---0--0---1--1---| 


Verse 1 
e------------------| 
B------------------| 
G-----------5--5---|no guitar until Chorus 
D----5--5---5--5---| 
A----5--5---3--3---| 
E----3--3----------| 


Chorus 
e------------------------------------------------------------| 
B------------------------------------------------------------| 
G-----------5--5---------------------------------------------|x2 
D----5--5---5--5---2--2---3--3---5--5---7--7---2--2---3--3---| 
A----5--5---3--3---2--2---3--3---5--5---7--7---2--2---3--3---| 
E----3--3----------0--0---1--1---3--3---5--5---0--0---1--1---| 


Intro 
e------------------------------------------------------------| 
B------------------------------------------------------------| 
G-----------5--5---------------------------------------------| 
D----5--5---5--5---2--2---3--3---5--5---7--7---2--2---3--3---| 
A----5--5---3--3---2--2---3--3---5--5---7--7---2--2---3--3---| 
E----3--3----------0--0---1--1---3--3---5--5---0--0---1--1---| 


Verse 2 
e------------------| 
B------------------| 
G-----------5--5---|no guitar until Chorus 
D----5--5---5--5---| 
A----5--5---3--3---| 
E----3--3----------| 


Chorus 
e------------------------------------------------------------| 
B------------------------------------------------------------| 
G-----------5--5---------------------------------------------|x2 
D----5--5---5--5---2--2---3--3---5--5---7--7---2--2---3--3---| 
A----5--5---3--3---2--2---3--3---5--5---7--7---2--2---3--3---| 
E----3--3----------0--0---1--1---3--3---5--5---0--0---1--1---| 

Intro 
e------------------------------------------------------------| 
B------------------------------------------------------------| 
G-----------5--5---------------------------------------------| 
D----5--5---5--5---2--2---3--3---5--5---7--7---2--2---3--3---| 
A----5--5---3--3---2--2---3--3---5--5---7--7---2--2---3--3---| 
E----3--3----------0--0---1--1---3--3---5--5---0--0---1--1---| 

Bridge (no guitars) 


Final Chorus 
e------------------------------------------------------------| 
B------------------------------------------------------------| 
G-----------7--7---------------------------------------------|x2 
D----7--7---7--7---4--4---5--5---7--7---9--9---4--4---5--5---| 
A----7--7---5--5---4--4---5--5---7--7---9--9---4--4---5--5---| 
E----5--5----------2--2---3--3---5--5---7--7---2--2---3--3---| 


Backing for Solo (Guitar 2) 
e------------------------------------------------------------| 
B------------------------------------------------------------| 
G-----------5--5---------------------------------------------|x2 
D----5--5---5--5---2--2---3--3---5--5---7--7---2--2---3--3---| 
A----5--5---3--3---2--2---3--3---5--5---7--7---2--2---3--3---| 
E----3--3----------0--0---1--1---3--3---5--5---0--0---1--1---| 
	  

No existe una video leccione para esta canción

request
LosAcordes
Buscar
auto avanzar rasgueos aumentar disminuir cambiar color esconder acordes gráficos
losacordes exhibir acordes losacordes youTube video losacordes ocultar tabs losacordes ir hacia arriba losacordes