The Cranberries

Início > The Cranbe... > acordes

Carry On Tablatura

The Cranberries

Dificultad:PrincipiantePrincipiante

tuner correct add songbook print version text version salvar en e-mail
acordesukuleletablaturabajobateríaarmónicaflautacavacopiano Guitar Pro
acordes

Carry On

Áño: 2001 - Álbum: Wake Up and Smell the Coffee

	  The Cranberries - Wake up and smell the coffe album. 2001 
Song: Carry on. Track 12 ( pista 12) versi?atino-americana. 
Tabbed by: Pedro J. Rangel  
Date: 16/12/2001 
[email protected] 
 
Afinacion: estandar 
Tuning: standart 
Key: \ = deslizar, slide. 
 
Guitarra 1  y Guitarra 2 son electricas, las dos en tono limpio. 
Guitar 1 and Guitar 2 are electric , both are clean tone. 
 
Guitarra 1 
 
					 aqu?omienza la letra , here starts singing 
	Bm	     D                 G               D       
E---------------2------------2--------------3------------2-------------------------------------------- 
B------------3---3--------3---3---------3----3-------3---3------------------------------------------ 
G---------4--------4----2-------2----0---------0---2------2-----4----------------------------------- 
D------4--------------0------------0--------------0------------4-------------------------------------- 
A------------------------------------------------------------------------------------------------------- 
E------------------------------------------------------------------------------------------------------- 
 
El ritmo es el mismo en el verso y el coro solo cambia al final del coro asi: 
The rhythm is the same through the verse and chorus, the only change is at the end of chorus so: 
 
											      						     A 
E---------------2------------2--------------3------------2-------------------------------------------0---- 
B------------3---3--------3---3---------3----3-------3---3--------2----2------2---2-----2-----2---- 
G---------4--------4----2-------2----0---------0---2------2----2----2------2----2----2--------2---- 
D------4--------------0------------0--------------0------------0-----------0------------------------2--- 
A--------------------------------------------------------------------------------------------------------- 
E--------------------------------------------------------------------------------------------------------- 
 
Solo					solamente al final, only at the end of song. 
E------------------------------------------------------------------------------------------------- 
B--------9-7--  8-7\6----8-7\3-------repeat  x 2-----------------9\0------------------------------- 
G---7-------------------7----------------------------------------7---------------------------- 
D------------------------------------------------------------------------------------------------ 
A------------------------------------------------------------------------------------------------------- 
E------------------------------------------------------------------------------------------------------- 
 
Guitarra 2: 
 
A partir del segundo verso se toca la limpia y rapida una sola vez por cada acorde. 
Since second verse it plays clean and fast once for each chord. 
            Bm	D	  G	       D 
E---------2---------------2----------------3----------------2----------------------------------------- 
B---------3---------------3----------------3----------------3---------------------------------- 
G---------4---------------2----------------0----------------2---------------------------------- 
D---------4---------------0----------------0----------------0--------------------------------------- 
A------------------------------------------------------------------------------------------------------- 
E------------------------------------------------------------------------------------------------------- 
 
Esta se toca al mismo tiempo de la guitarra 1. solamente en el segundo verso, en el coro no se debe tocar. 
Escucha la canci? llevar?el ritmo. 
Estoy seguro que est?orrecto 100 %. 
 

	  

No existe una video leccione para esta canción

request
Aumentar uno tonoAumentar uno tono
Aumentar uno semi-tonoAumentar uno semi-tono
Disminuir uno semi-tonoDisminuir uno semi-tono
Disminuir uno tonoDisminuir uno semi-tono
LosAcordes
Buscar
auto avanzar rasgueos aumentar disminuir cambiar color esconder acordes gráficos
losacordes exhibir acordes losacordes youTube video losacordes ocultar tabs losacordes ir hacia arriba losacordes