The Beatles

Início > The Beatle... > acordes

Yesterday (solo play) Tablatura

The Beatles

Dificultad:ExpertoExperto

Zefire

tuner correct add songbook print version text version salvar en e-mail
acordesukuleletablaturabajobateríaarmónicaflautacavacopiano Guitar Pro
acordes

Yesterday (solo play)

	  The Beatles, Yesterday 
PART 1 
e|---------------------|----0-2-4-5-7-8-|-7-5?-5------------|----5--5--3--1?0--| 
H|-3-1-1---------------|-0--------------|------5-----1?---0-|--1-------0------3| 
G|------0------0-----0-|-2--------------|------5--2?----0---|----------0-------| 
D|------2--0-----------|----------------|-------------------|3-----------------| 
A|-3--------------3----|-2--------------|-0-----------------|------------------| 
E|---------------------|--------0-------|-------------------|------------------| 
 
e|-1--0--0-------------| 
H|-------1--------3----| 
G|-------0-----1-----1-| 
D|---------------------| 
A|-3-------2-----------| 
E|---------------------| 
 
Part 2 
e|----0-----------|---0?-0------------|0---------0------0| 
H|-1-----3--------|-1---------3?-1--0-|----3----------3--| 
G|-----------2----|-2----0--?---------|--2---2------1----| 
D|-------4--------|--------------3----|------------------| 
A|-0-----5--------|------3------------|2-----------------| 
E|----------------|-1-----------------|----------0-------| 
 
e|-5---7----8----7--5--|-7----1-5--3--7-|-8--3-1------0-----|----0-------------| 
H|-5-------------------|----3------0----|-5----3-----?------|1-------3---------| 
G|-5-------------------|-----------0----|-5-------?---------|------------2-----| 
D|---------------------|-0--------------|-------------0-----|------------------| 
A|-0-0---0----0--------|----------------|-------------------|0-----------------| 
E|---------------------|----------------|-------------------|--------2---------| 
 
Replay the part1 and instead of playing the part2 play the ending 
 
Ending 
 
e|----0-------------| 
H|1-------3---------| 
G|------------2-----| 
D|------------------| 
A|0-----------------| 
E|--------2---------| 
 
e|-----0--0-8----------|----0-----------|------0---0--------| 
H|-1---------------1---|-1-----3--------|-1--------0-?------| 
G|-2------0-----0----0-|----------2-----|-2-------?0--------| 
D|---------------------|-2-----4--------|-3-----------------| 
A|--------3------------|----------------|----------3--------| 
E|-3-------------------|----------------|-------------------| 
 
 

	  

No existe una video leccione para esta canción

request
LosAcordes
Buscar
auto avanzar rasgueos aumentar disminuir cambiar color esconder acordes gráficos
losacordes exhibir acordes losacordes youTube video losacordes ocultar tabs losacordes ir hacia arriba losacordes