The Beatles

Início > The Beatle... > acordes

The night before Tablatura

The Beatles

Dificultad:Ningún gradoNingún grado

Pete_Townshend

tuner correct add songbook print version text version salvar en e-mail
acordesukuleletablaturabaixobateríaarmónicaflautacavacopiano Guitar Pro
acordes

The night before

	  Solo: 
   
  D                            C 
-|----------------------------|------------------------------ 
-|----------------------------|------------------------------ 
-|--------5b7r5---------------|------------------------------ 
-|-----------------7----------|-------------5b7r5---3-------- 
-|----------------------------|------------------------------ 
-|----------------------------|------------------------------ 
  G                            A 
-|----------------------------|------------------------------ 
-|----------------------------|------------------------------ 
-|---------5---7b9r7----5-----|------------------------------ 
-|-----7----------------------|-------------3b5r3------------ 
-|----------------------------|---------------------5-------- 
-|----------------------------|------------------------------ 
  D                            C 
-|----------------------------|------------------------------ 
-|----------------------------|------------------------------ 
-|--------5b7r5---------------|------------------------------ 
-|-----------------7----------|-------------5b7r5---3-------- 
-|----------------------------|------------------------------ 
-|----------------------------|------------------------------ 
  G                            A 
-|----------------------------|------------------------------ 
-|----------------------------|------------------------------ 
-|---------5---7b9r7----5-----|------------------------------ 
-|-----7----------------------|-------------3b5r3------------ 
-|----------------------------|---------------------5-------- 
-|----------------------------|------------------------------ 
 
UH UH UH UH BUM!!!!!!!!!!!!!!! 

	  

No existe una video leccione para esta canción

request
Aumentar uno tonoAumentar uno tono
Aumentar uno semi-tonoAumentar uno semi-tono
Disminuir uno semi-tonoDisminuir uno semi-tono
Disminuir uno tonoDisminuir uno semi-tono
LosAcordes
Buscar
auto avanzar rasgueos aumentar disminuir cambiar color esconder acordes gráficos
losacordes exhibir acordes losacordes youTube video losacordes ocultar tabs losacordes ir hacia arriba losacordes