The Beatles

Início > The Beatle... > acordes

Drive My Car Tablatura

The Beatles

Dificultad:PrincipiantePrincipiante

redsoxnation

tuner correct add songbook print version text version salvar en e-mail
acordesukuleletablaturabajobateríaarmónicaflautacavacopiano Guitar Pro
acordes

Drive My Car

Áño: 1965 - Álbum: Rubber Soul

(Lennon/ McCartney)

	  
Intro: 

e|----------------------------| 
B|----------6b7---------------| 
G|--5-7p5-------5-7-7p5---7~~-| 
D|7-------7-------7-7---7-----| 
A|----------------------------| 
E|----------------------------| 


Verse: 

e|-----------------------------------------| 
B|-----------------------------------------| 
G|-----------------------------------------| 
D|----------7------------------------------| 
A|-5-5--7h9---7h9p7\5------------5---------| 
E|-----------------------3-3-5h7---5h7p5\3-| 

A7 

e|----------------| 
B|----------------| 
G|----------------| 
D|----------------| 
A|------7-7h9p7---| 
E|--7h9---------9-| 

Chorus: Bm7 G 

e|-------------------------|-------------------------------| 
B|-------------------------|-------------------------------| 
G|-------------------------|-------------------------------| 
D|-------------------------|-------------------------------| 
A|-------------------------|-----------------------0-------| 
E|-7--7-7--7-5-3--3-3--3-5-|-7--7-7--7-5--0-2-3-0----3-2-0-| 

Bridge: 

e|------------------------------------------| 
B|------------------------------------------| 
G|------------------------------------------| 
D|------------------------------------------| 
A|---5--5------5--------------------7h9p7---| 
E|---------5h7---5h7p5\3-5--5---7h9-------9-| 

Solo: 

e|-----------10\------------------------|-----------------------| 
B|--------------------------------------|-9b10-(10)-12b13-(13)--| 
G|-5-6b7-(7)-----/12p10-12--12-12p10----|-----------------------| 
D|-----------------------------------12-|-----------------------| 
A|--------------------------------------|-----------------------| 
E|--------------------------------------|-----------------------| 
                                    (3x) 

e|-9b10-(10)-12b13----10--------| 
B|-----------------13----13b15--| 
G|------------------------------| 
D|------------------------------| 
A|------------------------------| 
E|------------------------------| 

	  

No existe una video leccione para esta canción

request
Aumentar uno tonoAumentar uno tono
Aumentar uno semi-tonoAumentar uno semi-tono
Disminuir uno semi-tonoDisminuir uno semi-tono
Disminuir uno tonoDisminuir uno semi-tono
LosAcordes
Buscar
auto avanzar rasgueos aumentar disminuir cambiar color esconder acordes gráficos
losacordes exhibir acordes losacordes youTube video losacordes ocultar tabs losacordes ir hacia arriba losacordes