The Beatles

Início > The Beatle... > acordes

Can´t Buy Me Love Tablatura

The Beatles

Dificultad:ExpertoExperto

Pete_Townshend

tuner correct add songbook print version text version salvar en e-mail
acordesukuleletablaturabajobateríaarmónicaflautacavacopiano Guitar Pro
acordes

Can´t Buy Me Love

Áño: 1964 - Álbum: A Hard Day´s Night

	  Solo: 
e|--------------------------------------------------------------------------- 
B|------7b8-7b8-7b8-7b8r7-------7b8-7b8-7b8r7--------------6--6-6-6-6-6------ 
G|-5-8--------------------8-5-8---------------8-5----------5--5-5-5-5-5------ 
D|------------------------------------------------8-5------7--7-7-7-7-7------ 
A|----------------------------------------------------8-6-------------------- 
 
e|------------------------------------------------------------------- 
B|-7b8-7b8-7b8-(7)b8r7----------------------------------------------- 
G|---------------------8-5-/4-/4-----------------3------------------- 
D|-------------------------/5-/5-5\3-1-3-1---3/5---5\3-1------------- 
A|-----------------------------------------3-------------3-h3-------- 
 

	  

No existe una video leccione para esta canción

request
LosAcordes
Buscar
auto avanzar rasgueos aumentar disminuir cambiar color esconder acordes gráficos
losacordes exhibir acordes losacordes youTube video losacordes ocultar tabs losacordes ir hacia arriba losacordes