The Associates

Início > The Associ... > acordes

Kitchen Person Tablatura

The Associates

Dificultad:Ningún gradoNingún grado

paulantunes

tuner correct add songbook print version text version salvar en e-mail
acordesukuleletablaturabajobateríaarmónicaflautacavacopiano Guitar Pro
acordes

Kitchen Person

	   



Intro: 
Guitar Overdub 
e|------------------------------------------------| 
B|-0-----#----------------------------------------| 
G|-0-----#----------------------------------------| 
D|-0-----#----------------------------------------| 
A|-x----------------------------------------------| 
E|------------------------------------------------| 
+ 
e|----------------------------16-16-16-16-16-16-16| 
B|-14-14-14-14-14-14-14-14-14---------------------| 
G|------------------------------------------------| 
D|------------------------------------------------| 
A|------------------------------------------------| 
E|------------------------------------------------| 
+ 
e|----------------------------------------------16| 
B|-12-12-12-12-12-12-12-12-13-13-13-13-14-14-14---| 
G|------------------------------------------------| 
D|------------------------------------------------| 
A|------------------------------------------------| 
E|------------------------------------------------| 



Intro: 
Guitar (Main) 
e|------------------------------------------------|| 
B|------------------------------------------------|| 
G|------------------------------------------------|| x 2 
D|------------------------------------------------|| 
A|------------------------------------------------|| 
E|------------------------------------------------|| 
+ 
e|------------------------------------------------| 
B|------------------------------------------------| 
G|------------------------------------------------| 
D|-------------5-----------------------5----------| 
A|-------6-h7--------7-p6--------6-h7--------7-p6-| 
E|-5-----------------------3----------------------| 
+ 
e|------------------------------------------------| 
B|------------------------------------------------| 
G|------------------------------------------------| 
D|-------------5----------------------------------| 
A|-------6-h7--------7-p6--------6-h7--------6-h7-| 
E|-1-----------------------1-----------3----------| 
+ 
e|------------------------------------------------| 
B|------------------------------------------------| 
G|------------------------------------------------| 
D|-------------5-----------------------5----------| 
A|-------6-h7--------7-p6--------6-h7--------7-p6-| 
E|-5-----------------------3----------------------| 
+ 
e|------------------------------------------------| 
B|------------------------------------------------| 
G|------------------------------------------------| 
D|-------------5----------------------------------| 
A|-------6-h7--------7-p6--------6-h7--------6-h7-| 
E|-1-----------------------1-----------3----------| 



Verse: 
Overdub 
e|------------------------------------------------| 
B|-------8-----8-----8-----8-----8-----7-----5----| 
G|------------------------------------------------| 
D|------------------------------------------------| 
A|------------------------------------------------| 
E|------------------------------------------------| 
+ 
e|------------------------------------------------| 
B|------------------------------------------------| 
G|-6-----------------------------9-----8----------| 
D|-------6-----6-----6-----6-----------------5----| 
A|------------------------------------------------| 
E|------------------------------------------------| 
+ 
e|------------------------------------------------| 
B|-------8-----8-----8-----8-----8-----7-----5----| 
G|------------------------------------------------| 
D|------------------------------------------------| 
A|------------------------------------------------| 
E|------------------------------------------------| 
+ 
e|------------------------------------------------| 
B|------------------------------------------------| 
G|-6-----------------------------9-----8----------| 
D|-------6-----6-----6-----6-----------------5----| 
A|------------------------------------------------| 
E|------------------------------------------------| 
+ 
e|------------------------------------------------| 
B|-------8-----8-----8-----8-----8-----7-----5----| 
G|------------------------------------------------| 
D|------------------------------------------------| 
A|------------------------------------------------| 
E|------------------------------------------------| 



Verse: 
Main 
e|------------------------------------------------| 
B|------------------------------------------------| 
G|------------------------------------------------| 
D|-------------5-----------------------5----------| 
A|-------6-h7--------7-p6--------6-h7--------7-p6-| 
E|-5-----------------------5----------------------| 
+ 
e|------------------------------------------------| 
B|------------------------------------------------| 
G|------------------------------------------------| 
D|-------------6-----------------------6----------| 
A|-------6-h7--------7-p6--------6-h7--------7-p6-| 
E|-9-----------------------9----------------------| 
+ 
e|------------------------------------------------| 
B|------------------------------------------------| 
G|------------------------------------------------| 
D|-------------5-----------------------5----------| 
A|-------6-h7--------7-p6--------6-h7--------7-p6-| 
E|-5-----------------------5----------------------| 
+ 
e|------------------------------------------------| 
B|------------------------------------------------| 
G|------------------------------------------------| 
D|-------------6-----------------------6----------| 
A|-------6-h7--------7-p6--------6-h7--------7-p6-| 
E|-9-----------------------9----------------------| 
e|------------------------------------------------| 
B|------------------------------------------------| 
G|------------------------------------------------| 
D|-------------5-----------------------5----------| 
A|-------6-h7--------7-p6--------6-h7--------7-p6-| 
E|-5-----------------------5----------------------| 



Pre-Chorus 
Overdub 
e|----------------------------------------2-----2-|| 
B|----------------------------------------2-----2-|| 
G|----------------------------------------2-----2-|| x 2 
D|------------------------------------------------|| 
A|------------------------------------------------|| 
E|------------------------------------------------|| 
+ 
e|----------------------------------------3--#--3-|| 
B|----------------------------------------3--#--3-|| 
G|----------------------------------------3--#--3-|| x 2 
D|------------------------------------------------|| 
A|------------------------------------------------|| 
E|------------------------------------------------|| 
+ 
e|------------------------------------------------|| 
B|------------------------------------------------|| 
G|------------------------------------------------|| x 4 
D|------------------------------------------------|| 
A|------------------------------------------------|| 
E|------------------------------------------------|| 



Pre-Chorus 
Main 
e|------------------------------------------------|| 
B|------------------------------------------------|| 
G|----------2-----------------------2-------------|| x 2 
D|----------2-----------------------2-------------|| 
A|-------4-----------4-----------4-----------4----|| 
E|-2--------------------0--2--------------------0-|| 
+ 
e|------------------------------------------------|| 
B|------------------------------------------------|| 
G|----------2-----------------------2-------------|| 
D|----------3-----------------------3-------------|| 
A|-------5-----------5-----------5-----------5----|| 
E|-3--------------------0--3--------------------0-|| 
+ 
e|------------------------------------------------| 
B|------------------------------------------------| 
G|------------------------------------------------| 
D|-------------5-----------------------5----------| 
A|-------6-h7--------7-p6--------6-h7--------7-p6-| 
E|-5-----------------------3----------------------| 
+ 
e|------------------------------------------------| 
B|------------------------------------------------| 
G|------------------------------------------------| 
D|-------------5----------------------------------| 
A|-------6-h7--------7-p6--------6-h7--------6-h7-| 
E|-1-----------------------1-----------3----------| 
+ 
e|------------------------------------------------| 
B|------------------------------------------------| 
G|------------------------------------------------| 
D|-------------5-----------------------5----------| 
A|-------6-h7--------7-p6--------6-h7--------7-p6-| 
E|-5-----------------------3----------------------| 
+ 
e|------------------------------------------------| 
B|------------------------------------------------| 
G|------------------------------------------------| 
D|-------------5----------------------------------| 
A|-------6-h7--------7-p6--------6-h7--------6-h7-| 
E|-1-----------------------1-----------3----------| 



Chorus: 
Main 
e|------------------------------------------------| 
B|------------------------------------------------| 
G|------------------------------------------------| 
D|------------------------------------------------| 
A|----------2-----3-----2-----------2-----3-------| 
E|-1-----3-----------------1-----3--------------3-| 
+ 
e|------------------------------------------------| 
B|------------------------------------------------| 
G|------------------------------------------------| 
D|------------------------------------------------| 
A|------------------------------------------------| 
E|-5--#-----5--#-----5--#-----5--#-----3--#--3--#-| 
+ 
e|------------------------------------------------| 
B|------------------------------------------------| 
G|------------------------------------------------| 
D|------------------------------------------------| 
A|----------2-----3-----2-----------2-----3-------| 
E|-1-----3-----------------1-----3--------------3-| 
+ 
e|------------------------------------------------| 
B|------------------------------------------------| 
G|------------------------------------------------| 
D|------------------------------------------------| 
A|------------------------------------------------| 
E|-5--#-----5--#-----5--#-----5--#-----3--#--3--#-| 
+ 
e|------------------------------------------------| 
B|------------------------------------------------| 
G|------------------------------------------------| 
D|------------------------------------------------| 
A|-------3--3--5--5--6-----------3--3--5--5--6----| 
E|-4--4-----------------4-----4-----------------5-| 
+ 
e|------------------------------------------------| 
B|------------------------------------------------| 
G|------------------------------------------------| 
D|------------------------------------------------| 
A|-------2--2--3--3--5-----------3--2--3--2-------| 
E|----5-----------------1-----1--------------3--4-| 
+ 
e|------------------------------------------------| 
B|------------------------------------------------| 
G|------------------------------------------------| 
D|------------------------------------------------| 
A|-------3--3--5--5--6-----------3--3--5--5--6----| 
E|-4--4-----------------4-----4-----------------5-| 
+ 
e|------------------------------------------------| 
B|------------------------------------------------| 
G|------------------------------------------------| 
D|------------------------------------------------| 
A|-------2--2--3--3--5-----------3--2--3--2-------| 
E|----5-----------------1-----1--------------3--4-| 
+ 
e|------------------------------------------------| 
B|------------------------------------------------| 
G|------------------------------------------------| 
D|------------------------------------------------| 
A|-------2--2--3--3--5-----------3--2--3--2-------| 
E|-5--5-----------------1-----1--------------3--4-| 
+ 
e|------------------------------------------------| 
B|------------------------------------------------| 
G|------------------------------------------------| 
D|------------------------------------------------| 
A|-------2--3--------2--3--5--5--6--7--------6--7-| 
E|-5--5--------1--1--------------------3--3-------| 



INTERLUDE I: 
Main 
e|------------------------------------------------|| 
B|------------------------------------------------|| 
G|------------------------------------------------|| x 2 
D|-------------5-----------------------5----------|| 
A|-------6-h7--------7-p6--------6-h7--------7-p6-|| 
E|-5-----------------------5----------------------|| 



INTERLUDE II: 
Main 
e|------------------------------------------------| 
B|------------------------------------------------| 
G|------------------------------------------------| 
D|------------------------------------------------| 
A|------------------------------------------------| 
E|------------------------------------------------| 



OUTRO: 
Main 
e|------------------------------------------------| 
B|------------------------------------------------| 
G|------------------------------------------------| 
D|-------------5-----------------------5----------| 
A|-------6-h7--------7-p6--------6-h7--------7-p6-| 
E|-5-----------------------3----------------------| 
+ 
e|------------------------------------------------| 
B|------------------------------------------------| 
G|------------------------------------------------| 
D|-------------5----------------------------------| 
A|-------6-h7--------7-p6--------6-h7--------6-h7-| 
E|-1-----------------------1-----------3----------| 
+ 
e|------------------------------------------------| 
B|------------------------------------------------| 
G|------------------------------------------------| 
D|-------------5-----------------------5----------| 
A|-------6-h7--------7-p6--------6-h7--------7-p6-| 
E|-5-----------------------3----------------------| 
+ 
e|------------------------------------------------| 
B|------------------------------------------------| 
G|------------------------------------------------| 
D|-------------5----------------------------------| 
A|-------6-h7--------7-p6--------6-h7--------6-h7-| 
E|-1-----------------------1-----------3----------| 
+ 
e|------------------------------------------------| 
B|------------------------------------------------| 
G|------------------------------------------------| 
D|-------------5-----------------------5----------| 
A|-------6-h7--------7-p6--------6-h7--------7-p6-| 
E|-5-----------------------3----------------------| 
+ 
e|------------------------------------------------| 
B|------------------------------------------------| 
G|------------------------------------------------| 
D|-------------5----------------------------------| 
A|-------6-h7--------7-p6--------6-h7--------6-h7-| 
E|-1-----------------------1-----------3----------| 
+ 
e|------------------------------------------------| 
B|------------------------------------------------| 
G|------------------------------------------------| 
D|-------------5-----------------------5----------| 
A|-------6-h7--------7-p6--------6-h7--------7-p6-| 
E|-5-----------------------3----------------------| 
+ 
e|------------------------------------------------| 
B|------------------------------------------------| 
G|------------------------------------------------| 
D|-------------5----------------------------------| 
A|-------6-h7--------7-p6--------6-h7--------6-h7-| 
E|-1-----------------------1-----------3----------| 
+ 
e|------------------------------------------------| 
B|------------------------------------------------| 
G|------------------------------------------------| 
D|------------------------------------------------| 
A|------------------------------------------------| 
E|-5----------------------------------------------| 
+ 
e|------------------------------------------------| 
B|------------------------------------------------| 
G|------------------------------------------------| 
D|------------------------------------------------| 
A|------------------------------------------------| 
E|------------------------------------------------| 



SONG STRUCTURE: 

Main Guitar 
INTRO w/ Overdub 
VERSE w/ Overdub 
Pre-Chorus w/ Overdub 
VERSE w/ Overdub 
Pre-Chorus w/ Overdub 
Chorus 
INTERLUDE I 
VERSE w/ Overdub 
Pre-Chorus w/ Overdub 
Chorus 
INTERLUDE II 
Chorus 
OUTRO 



That's it. Please feel free to leave comments, corrections, requests, and suggestions. Cheers! 
-Bennyshambles78- 
	  

No existe una video leccione para esta canción

request
LosAcordes
Buscar
auto avanzar rasgueos aumentar disminuir cambiar color esconder acordes gráficos
losacordes exhibir acordes losacordes youTube video losacordes ocultar tabs losacordes ir hacia arriba losacordes