Thalles Roberto

Início > Thalles Ro... > acordes

Eu Escolho Deus Tablatura

Thalles Roberto

Dificultad:PrincipiantePrincipiante

rebeldecifras

tuner correct add songbook print version text version salvar en e-mail
acordesukuleletablaturabajobateríaarmónicaflautacavacopiano Guitar Pro
acordes

Eu Escolho Deus

	   riff 1: 
                    C9 
e|------------------3--| 
B|------------------3--| 
G|------------------0--| 
D|-------0-0h2------2--| 
A|---0h2------------3--| 
E|------------------x--| 

Riff 2: 
e|---------------------| 
B|------------------3--| 
G|-----0---0---0-------| 
D|-------4---4---------| 
A|---------------------| 
E|---0-----------------| 
	  

No existe una video leccione para esta canción

request
Aumentar uno tonoAumentar uno tono
Aumentar uno semi-tonoAumentar uno semi-tono
Disminuir uno semi-tonoDisminuir uno semi-tono
Disminuir uno tonoDisminuir uno semi-tono
LosAcordes
Buscar
auto avanzar rasgueos aumentar disminuir cambiar color esconder acordes gráficos
losacordes exhibir acordes losacordes youTube video losacordes ocultar tabs losacordes ir hacia arriba losacordes