Temas Diversos

Início > Temas Dive... > acordes

Game Of Thrones Theme Tablatura

Temas Diversos

Dificultad:Ningún gradoNingún grado

Mentalize

tuner correct add songbook print version text version salvar en e-mail
acordesukuleletablaturabajobateríaarmónicaflautacavacopiano Guitar Pro
acordes

Game Of Thrones Theme

	  E|----------------|----------------------|---------------|---------------| 
B|----------------|----------------------|---------------|---------------| 
G|----------------|----------------------|---------------|---------------| 
D|--4-------------|--0h-2-4---------0h-2-|---------------|---------------| 
A|---------2------|------------2---------|--4------------|--L------------| 
E|----------------|----------------------|---------------|---------------| 



E|----------------|-------------------|------------------|---------------| 
B|----------------|-------------------|------------------|---------------| 
G|----------------|-------------------|------------------|---------------| 
D|--2-------------|-------2-----------|------------------|---------------| 
A|---------0------|--5p-4------0------|--5-4-2--L--------|--L------------| 
E|----------------|-------------------|------------------|---------------| 



E|----------------|----------------------|---------------|---------------| 
B|----------------|----------------------|---------------|---------------| 
G|----------------|----------------------|---------------|---------------| 
D|--4-------------|--0h-2-4---------0h-2-|---------------|---------------| 
A|---------2------|------------2---------|--4------------|--L------------| 
E|----------------|----------------------|---------------|---------------| 



E|----------------|-------------------|------------------|---------------| 
B|----------------|-------------------|------------------|---------------| 
G|----------------|-------------------|------------------|---------------| 
D|--2-------------|-------2-----------|------------------|---------------| 
A|---------0------|--5p-4------0------|--5-4-2--L--------|--L------------| 
E|----------------|-------------------|------------------|---------------| 



E|----------------|----------------------|---------------|---------------| 
B|----------------|----------------------|---------------|---------------| 
G|----------------|----------------------|---------------|---------------| 
D|--4-------------|--0h-2-4---------0h-2-|---------------|---------------| 
A|---------2------|------------2---------|--4------------|--L------------| 
E|----------------|----------------------|---------------|---------------| 



E|----------------|------------------|---------------|---------------| 
B|----------------|------------------|---------------|---------------| 
G|----------------|------------------|---------------|---------------| 
D|--2-------------|------------------|---------------|---------------| 
A|---------0------|--4----5--4----0--|--2------------|--L------------| 
E|----------------|------------------|---------------|---------------| 



E|---------------|---------------|---------------|---------------|---------------| 
B|---------------|---------------|---------------|---------------|---------------| 
G|--4------------|---------------|---------------|---------------|---------------| 
D|---------------|--7------------|---------------|--4------------|---------------| 
A|---------------|---------------|--2------------|---------------|---------------| 
E|---------------|---------------|---------------|---------------|--3------------| 



E|----------------|---------------|---------------|---------------| 
B|----------------|---------------|---------------|---------------| 
G|----------------|---------------|---------------|--4------------| 
D|--0------2------|--4------------|--L------------|---------------| 
A|----------------|---------------|---------------|---------------| 
E|----------------|---------------|---------------|---------------| 



E|---------------|---------------|---------------|---------------| 
B|---------------|---------------|---------------|---------------| 
G|---------------|---------------|---------------|---------------| 
D|--7------------|---------------|--4------------|---------------| 
A|---------------|--2------------|---------------|---------------| 
E|---------------|---------------|---------------|--3------------| 



E|----------------|------------------------|------------------------|----|----| 
B|----------------|------------------------|------------------------|----|----| 
G|----------------|--4-----0h-2-4-----0h-2-|--4-----0h-2-4-----0h-2-|----|----| 
D|--0-------------|-----4----------4-------|-----4----------4-------|----|----| 
A|---------4------|------------------------|------------------------|----|----| 
E|----------------|------------------------|------------------------|----|----| 
	  

No existe una video leccione para esta canción

request
LosAcordes
Buscar
auto avanzar rasgueos aumentar disminuir cambiar color esconder acordes gráficos
losacordes exhibir acordes losacordes youTube video losacordes ocultar tabs losacordes ir hacia arriba losacordes