Taylor Swift

Início > Taylor Swi... > acordes

A place in this world Tablatura

Taylor Swift

Dificultad:Ningún gradoNingún grado

brunblazkowski

tuner correct add songbook print version text version salvar en e-mail
acordesukuleletablaturabajobateríaarmónicaflautacavacopiano Guitar Pro
acordes

A place in this world

Áño: 2006 - Álbum: Taylor Swift

	  

e|------------------|----0--0--2-|----0--0-------------------| 
B|-2--2--2--0-------|------------|----------3--2--2--0-----0-| 
G|-------------2--2-|-2----------|-2--------------------2----| 
D|------------------|------------|---------------------------| 
A|------------------|------------|---------------------------| 
E|------------------|------------|---------------------------| 
I don't know what I want| So don't ask me| Cause I'm still trying to figure it out 

e|------------------|----0--0--2-|----0--0-------------------| 
B|-2--2--2--0-------|------------|----------3--2--2--0-----0-| 
G|-------------2--2-|-2----------|-2--------------------2----| 
D|------------------|------------|---------------------------| 
A|------------------|------------|---------------------------| 
E|------------------|------------|---------------------------| 
Don't know what's down this road| I'm just walking| Trying to see through the rain coming down 

e|-------------0-----------0-----------5--2--0-| 
B|---------------------------------------------| 
G|-2--2--1--2-----2--1--2-----2--2--2----------| 
D|---------------------------------------------| 
A|---------------------------------------------| 
E|---------------------------------------------| 
Even though I'm not the only one who feels the way I do 

e|-2--4--5-|-2--4--5-|-2--4--5/9--4| 
B|---------|---------|-------------| 
G|---------|---------|-------------| 
D|---------|---------|-------------| 
A|---------|---------|-------------| 
E|---------|---------|-------------| 
I'm alone| On my own| And that's all I know 

e|-2--4--5-|-2--4--5-|-2--4--5/9--4| 
B|---------|---------|-------------| 
G|---------|---------|-------------| 
D|---------|---------|-------------| 
A|---------|---------|-------------| 
E|---------|---------|-------------| 
I'll be strong| I'll be wrong| Oh but life goes on 

e|-0--0----------------|-------------0----------| 
B|-------3--2--2-------|-2--2--2--3-------------| 
G|----------------2--2-|----------------2--2--2-| 
D|---------------------|------------------------| 
A|---------------------|------------------------| 
E|---------------------|------------------------| 
Oh I'm just a girl| Trying to find a place in this world 


e|------------------|----0--0--2-|----0--0-------------------| 
B|-2--2--2--0-------|------------|----------3--2--2--0-----0-| 
G|-------------2--2-|-2----------|-2--------------------2----| 
D|------------------|------------|---------------------------| 
A|------------------|------------|---------------------------| 
E|------------------|------------|---------------------------| 
Got the radio on| My old blue jeans| And I'm wearing my heart on my sleeve 

e|------------------|----0--0--2-|----0--0-------------------| 
B|-2--2--2--0-------|------------|----------3--2--2--0-----0-| 
G|-------------2--2-|-2----------|-2--------------------2----| 
D|------------------|------------|---------------------------| 
A|------------------|------------|---------------------------| 
E|------------------|------------|---------------------------| 
Feeling lucky today| Got the sunshine| Could you tell me what more do I need 

e|-------------0-----------0-----------5--2--0-| 
B|---------------------------------------------| 
G|-2--2--1--2-----2--1--2-----2--2--2----------| 
D|---------------------------------------------| 
A|---------------------------------------------| 
E|---------------------------------------------| 
And tomorrow's just a mystery, oh yeah but that's ok 

e|-2--4--5-|-2--4--5-|-2--4--5/9--4| 
B|---------|---------|-------------| 
G|---------|---------|-------------| 
D|---------|---------|-------------| 
A|---------|---------|-------------| 
E|---------|---------|-------------| 
I'm alone| On my own| And that's all I know 

e|-2--4--5-|-2--4--5-|-2--4--5/9--4| 
B|---------|---------|-------------| 
G|---------|---------|-------------| 
D|---------|---------|-------------| 
A|---------|---------|-------------| 
E|---------|---------|-------------| 
I'll be strong| I'll be wrong| Oh but life goes on 

e|-0--0----------------|-------------0----------| 
B|-------3--2--2-------|-2--2--2--3-------------| 
G|----------------2--2-|----------------2--2--2-| 
D|---------------------|------------------------| 
A|---------------------|------------------------| 
E|---------------------|------------------------| 
Oh I'm just a girl| Trying to find a place in this world 

e|-5--5--5--7--9--9--7--5--7--0-|-5--5--5--7--9--9--10--7-| 
B|------------------------------|-------------------------| 
G|------------------------------|-------------------------| 
D|------------------------------|-------------------------| 
A|------------------------------|-------------------------| 
E|------------------------------|-------------------------| 
Maybe I'm just a girl on a mission| But I'm ready to fly 

e|-2--4--5-|-2--4--5-|-2--4--5/9--4| 
B|---------|---------|-------------| 
G|---------|---------|-------------| 
D|---------|---------|-------------| 
A|---------|---------|-------------| 
E|---------|---------|-------------| 
I'm alone| On my own| And that's all I know 

e|-2--4--5-|-2--4--5-|-2--4--5/9--4| 
B|---------|---------|-------------| 
G|---------|---------|-------------| 
D|---------|---------|-------------| 
A|---------|---------|-------------| 
E|---------|---------|-------------| 
I'll be strong| I'll be wrong| Oh but life goes on 


e|-2--4--5-|-2--4--5-|-2--4--5/9--4| 
B|---------|---------|-------------| 
G|---------|---------|-------------| 
D|---------|---------|-------------| 
A|---------|---------|-------------| 
E|---------|---------|-------------| 
I'm alone| On my own| And that's all I know 

e|-0--0----------------|-------------0----------| 
B|-------3--2--2-------|-2--2--2--3-------------| 
G|----------------2--2-|----------------2--2--2-| 
D|---------------------|------------------------| 
A|---------------------|------------------------| 
E|---------------------|------------------------| 
Oh I'm just a girl| Trying to find a place in this world 

e|-0--0----------------| 
B|-------3--2--2-------| 
G|----------------2--2-|           x3 
D|---------------------| 
A|---------------------| 
E|---------------------| 
Oh I'm just a girl 

************************************ 

| /   slide up 
| \   slide down 
| h   hammer-on 
| p   pull-off 
| ~   vibrato 
| +   harmonic 
| x   Mute note 
| b   Bend 
| pb  Pre-bend 
| br  Bend release 
| pbr Pre-bend release 
| brb Bend release bend 

************************************ 
	  

No existe una video leccione para esta canción

request
LosAcordes
Buscar
auto avanzar rasgueos aumentar disminuir cambiar color esconder acordes gráficos
losacordes exhibir acordes losacordes youTube video losacordes ocultar tabs losacordes ir hacia arriba losacordes