Sunk Loto

Início > Sunk Loto > acordes

Empty And Alone Tablatura

Sunk Loto

Dificultad:Ningún gradoNingún grado

tuner correct add songbook print version text version salvar en e-mail
acordesukuleletablaturabajobateríaarmónicaflautacavacopiano Guitar Pro
acordes

Empty And Alone

	  Tabbed by Alec Denning 
for any help or suggestions emial me at [email protected] 
 
Tuning - same as standard dropped D but a whole step down 
tuning: low to high (C,G,C,F,A,D) 
 
(number) - harmonics 
* - mute strings 
/ - slide up 
\ - slide down 
 
This song's a bit all over the place.. bits here and there so ill pretty uch  
just tab 
the whole lot out as it is without putting play this Riff here and so on :) 
 
 
Intro 
 
D||---------------------------------------------------------------------------|| 
A||--10-10-10-10-10-10-10-------------10-10-10-10-10-10-10-----------|| 
F||--10-10-10-10-10-10-10--------------10-10-10-10-10-10-10----------|| 
C||--10-10-10-10-10-10-10--0-0-0-0---10-10-10-10-10-10-10----------|| 
G||-----------------------------0-0-0-0-------------------------------------||   play once 
C||-----------------------------0-0-0-0-------------------------------------|| 
                                                * * * * 
 
Riff 1 
 
D||----------------------------------------------------------------------------------------------|| 
A||----------------------------------------------------------------------------------------------|| 
F||----------------------------------------------------------------------------------------------|| 
C||--0-0-0-0-8-\----0-0-0-0-6-\----0-0-0-0-3-\----------------------------------------------|| 
G||--0-0-0-0-8-\----0-0-0-0-6-\----0-0-0-0-3-\----------------------------------------------|| play x2 
C||--0-0-0-0-8-\----0-0-0-0-6-\----0-0-0-0-3-\----1p0-0--6p0-0--1p0-0-------------------|| 
        * * * *             * * * *              * * * * 
add this on the end (Riff 1 part2) 
 
D||---------------------------------------------------------------------|| 
A||---------------------------------------------------------------------|| 
F||---------------------------------------------------------------------|| 
C||---------------------------------------------------------------------|| 
G||---------------------------------------------------------------------|| 
C||--1p0-0--6p0-0--1p0-0--------------------------------------------|| 
 
 
Riff 2 
 
D||---------------------------------------------------------------------------------------|| 
A||---------------------------------------------------------------------------------------|| 
F||----------------------------------------------------------------------------------------|| 
C||--0-0-0-0-0----0-0-0-0-0-8-\----0-0-0-0-0---------------------------8-\-----------|| 
G||--0-0-0-0-0----0-0-0-0-0-8-\----0-0-0-0-0---------------------------8-\-----------||  
play x 4 
C||--0-0-0-0-0----0-0-0-0-0-8-\----0-0-0-0-0--0-1p0--0-3p0--0-6p0--8-\-----------|| 
        * * * * *        * * * * *              * * * * *     * * *    * * *  
     * * * 
Riff 2 (part2) 
 
D||-------------------------------------------------------------------------------------------|| 
A||-------------------------------------------------------------------------------------------|| 
F||-------------------------------------------------------------------------------------------|| 
C||--0-0-0-0-0----0-0-0-0-0-8-\----0-0-0-0-0---------------------------------------------|| 
G||--0-0-0-0-0----0-0-0-0-0-8-\----0-0-0-0-0---------------------------------------------||  
play once 
C||--0-0-0-0-0----0-0-0-0-0-8-\----0-0-0-0-0--0-1p0--0-3p0--0-6p0--0-8p0------------|| 
        * * * * *        * * * * *              * * * * *     * * *    * * *  
     * * *    * * * 
 
Riff 3 (chorus) 
 
D||---------------------------------------------------------------------------------------------------------------------------------------------------------------------------------|| 
A||---------------------------------------------------------------------------------------------------------------------------------------------------------------------------------|| 
F||---------------------------------------------------------------------------------------------------------------------------------------------------------------------------------|| 
C||-0-0-0-0-0-0-0-0-0-0-0-0-0-0-0-0--8-8-8-8-8-8-8-8-8-8-8-8-8-8-8-8--3-3-3-3-3-3-3-3-3-3-3-3-3-3-3-3--15-15-15-15-15-15-15-15-15-15-15-15-15-15-15-15---|| 
G||-0-0-0-0-0-0-0-0-0-0-0-0-0-0-0-0--8-8-8-8-8-8-8-8-8-8-8-8-8-8-8-8--3-3-3-3-3-3-3-3-3-3-3-3-3-3-3-3--15-15-15-15-15-15-15-15-15-15-15-15-15-15-15-15---|| play x2 
C||-0-0-0-0-0-0-0-0-0-0-0-0-0-0-0-0--8-8-8-8-8-8-8-8-8-8-8-8-8-8-8-8--3-3-3-3-3-3-3-3-3-3-3-3-3-3-3-3--15-15-15-15-15-15-15-15-15-15-15-15-15-15-15-15---|| 
							(not too sure about these notes here ^ but it'll do, just find  
something that works for u) 
 
Intro x1 (variation) 
 
D||----------------------------------------------------------------------------------|| 
A||--10-10-10-10-10-10-10-------------10-10-10-10-10-10-10------------------|| 
F||--10-10-10-10-10-10-10--------------10-10-10-10-10-10-10-----------------|| 
C||--10-10-10-10-10-10-10--0-0-0-0---10-10-10-10-10-10-10---0-0-0-0-8-\--|| 
G||-----------------------------0-0-0-0------------------------------0-0-0-0-8-\--||  
  play once 
C||-----------------------------0-0-0-0------------------------------0-0-0-0-8-\--|| 
                                                * * * * 
 
play Riff 2 (part1 x4, part2 x1) 
 
play Riff 3 (chorus) x2 
 
play Riff 1 again 
 
D||----------------------------------------------------------------------------------------------|| 
A||----------------------------------------------------------------------------------------------|| 
F||----------------------------------------------------------------------------------------------|| 
C||--0-0-0-0-8-\----0-0-0-0-6-\----0-0-0-0-3-\----------------------------------------------|| 
G||--0-0-0-0-8-\----0-0-0-0-6-\----0-0-0-0-3-\----------------------------------------------||  
play x2 
C||--0-0-0-0-8-\----0-0-0-0-6-\----0-0-0-0-3-\----1p0-0--6p0-0--1p0-0-------------------|| 
        * * * *             * * * *              * * * * 
add this on the end (Riff 1 part2) 
 
D||---------------------------------------------------------------------|| 
A||---------------------------------------------------------------------|| 
F||---------------------------------------------------------------------|| 
C||---------------------------------------------------------------------|| 
G||---------------------------------------------------------------------|| 
C||--1p0-0--6p0-0--1p0-0--------------------------------------------|| play  
once 
 
then play this part after this 
 
D||---------------------------------------------------------------------|| 
A||---------------------------------------------------------------------|| 
F||---------------------------------------------------------------------|| 
C||---------------------------------------------------------------------|| 
G||---------------------------------------------------------------------|| 
C||--1p0-0--6p0-0--1p0-0--1p0-0--6p0-0--1p0-0-------------------|| play once 
 
 
Riff 4 
 
D||---------------------------------------------------------------------|| 
A||---------------------------------------------------------------------|| 
F||---------------------------------------------------------------------|| 
C||---------------------------------------------------------------------|| 
G||---------------------------------------------------------------------|| 
C||-1p0-0--6p0-0--1p0-0---0-0-0-0---1p0-0--6p0-0--1p0-0--------|| play x4 
                                             * * * * 
 
Bridge 1 
 
D||---------------------------------------------------------------------|| 
A||---------------------------------------------------------------------|| 
F||---------------------------------------------------------------------|| 
C||---------------------------------------------------------------------|| 
G||---------------------------------------------------------------------|| 
C||--1p0-0--6p0-0--1p0-0--1p0-0--6p0-0--1p0-0-------------------|| play x 2 
 
 
play Riff 2 (part1 x4, part2 x1) 
 
 
play Riff 3 (chorus) variation 
 
D||---------------------------------------------------------------------------------------------------------------------------------------------------------------------------------|| 
A||---------------------------------------------------------------------------------------------------------------------------------------------------------------------------------|| 
F||---------------------------------------------------------------------------------------------------------------------------------------------------------------------------------|| 
C||-0-0-0-0-0-0-0-0-0-0-0-0-0-0-0-0--8-8-8-8-8-8-8-8-8-8-8-8-8-8-8-8--3-3-3-3-3-3-3-3-3-3-3-3-3-3-3-3--15-15-15-15-15-15-15-15-15-15-15-15-15-15-15-15---|| 
G||-0-0-0-0-0-0-0-0-0-0-0-0-0-0-0-0--8-8-8-8-8-8-8-8-8-8-8-8-8-8-8-8--3-3-3-3-3-3-3-3-3-3-3-3-3-3-3-3--15-15-15-15-15-15-15-15-15-15-15-15-15-15-15-15---|| play x1 
C||-0-0-0-0-0-0-0-0-0-0-0-0-0-0-0-0--8-8-8-8-8-8-8-8-8-8-8-8-8-8-8-8--3-3-3-3-3-3-3-3-3-3-3-3-3-3-3-3--15-15-15-15-15-15-15-15-15-15-15-15-15-15-15-15---|| 
							(not too sure about these notes here ^ but it'll do, just find  
something that works for u) 
 
 
 
D||-------------------------------------------------------------------------------------------------------------------------------------------------------------|| 
A||-------------------------------------------------------------------------------------------------------------------------------------------------------------|| 
F||-------------------------------------------------------------------------------------------------------------------------------------------------------------|| 
C||-------------------------------------------------------------------------------------------------------------------------------------------------------------|| 
G||-------------------------------------------------------------------------------------------------------------------------------------------------------------|| play x1 
C||-0-12p0-0-12p0-0-12p0-0-12p0-0-12p0-8-8-8-8-8-8-8-8-8-8-8-8--9-9-9-9-9-9-9-9-9-9-9-9--10-10-10-10-10-10-10-11-11-11-11-11-11--------|| 
 
 
Bridge 1 
 
D||---------------------------------------------------------------------|| 
A||---------------------------------------------------------------------|| 
F||---------------------------------------------------------------------|| 
C||---------------------------------------------------------------------|| 
G||---------------------------------------------------------------------|| 
C||--1p0-0--6p0-0--1p0-0--1p0-0--6p0-0--1p0-0-------------------|| play x 2 
 
Intro x1 (variation) 
 
D||----------------------------------------------------------------------------------|| 
A||--10-10-10-10-10-10-10-------------10-10-10-10-10-10-10------------------|| 
F||--10-10-10-10-10-10-10-------------10-10-10-10-10-10-10-----------------|| 
C||--10-10-10-10-10-10-10--0-0-0-0----10-10-10-10-10-10-10--0-0-0-0-8-\--|| 
G||------------------------0-0-0-0--------------------------0-0-0-0-8-\--|| play once 
C||------------------------0-0-0-0--------------------------0-0-0-0-8-\--|| 
                                                * * * * 
 
 
 
thats the end :) 
enjoy! 
 
-and please dont use it without asking me.. at least gimme credit for it if  
u use it anywhere 
 

	  

No existe una video leccione para esta canción

request
Aumentar uno tonoAumentar uno tono
Aumentar uno semi-tonoAumentar uno semi-tono
Disminuir uno semi-tonoDisminuir uno semi-tono
Disminuir uno tonoDisminuir uno semi-tono
LosAcordes
Buscar
auto avanzar rasgueos aumentar disminuir cambiar color esconder acordes gráficos
losacordes exhibir acordes losacordes youTube video losacordes ocultar tabs losacordes ir hacia arriba losacordes