Sungha Jung

Início > Sungha Jun... > acordes

Fight Tablatura

Sungha Jung

Dificultad:ExpertoExperto

tamamoreira

tuner correct add songbook print version text version salvar en e-mail
acordesukuleletablaturabajobateríaarmónicaflautacavacopiano Guitar Pro
acordes

Fight

	  Riff 1 

E|----------------|-----------------|----------------|---------------2| 
B|--0----1----3---|-5-6-5h6p5-3-----|--5-------5-----|3-----3-----3--3| 
G|--0----2----4---|-5---------4-5---|-----4----------|---2-----2--2---| 
D|----------------|-------------7---|--------6-------|4--------4------| 
A|----------------|-----------------|----------------|----------------| 
E|----------------|-----------------|----------------|----------------| 

Riff 2 

E|----------------|-----------------|----------------|---0-----------5| 
B|--0----1----3---|-5-6-5h6p5-3-----|-0-----2----2---|2--2-----2--5---| 
G|--0----2----4---|-5---------4-5---|----2-------2---|2-----2---------| 
D|----------------|-------------7---|----------------|2---------------| 
A|----------------|-----------------|-2--------------|0---------------| 
E|----------------|-----------------|----------------|----------------| 

Riff 3 

E|----------------|-----------------|-5----------5---|3------3-------3| 
B|--0----1----3---|-5-6-5h6p5-3-----|-----5----------|---3--------3--3| 
G|--0----2----4---|-5---------4-5---|---------6------|4--------4--4---| 
D|----------------|-------------7---|----------------|5--------5------| 
A|----------------|-----------------|----------------|----------------| 
E|----------------|-----------------|----------------|----------------| 

Riff 4 

E|----------------|-----------------|-------3-3---3--|-----7-10-8-----| 
B|--0----1----3---|-5-6-5h6p5-3-----|---0-3-3-3-3-3-3|-8-5-5-8--------| 
G|--0----2----4---|-5---------4-5---|-0-0-4-----4---4|-5-5------9-----| 
D|----------------|-------------7---|-2--------------|-5-5-5----------| 
A|----------------|-----------------|----------------|-------8--7-----| 
E|----------------|-----------------|----------------|----------------| 

________________________________________________________________________________________________ 

Electric guitar - Distortion 

Riff 5a 

E|-----------------------------------|--------------------------------| 
B|-----------------------------------|--------------------------------| 
G|-----------------------------------|--------------------------------| 
D|-----------------------------------|--------------------------------| 
A|--------------5-----------------4--|-------------5-------4-------4--| 
E|--0-0-0-0-0-0-3---0-0-0-0-0-0-0-2--|-0-0-0-0-0-0-3---0-0-2---0-0-2--| 
P.M ...........     .............      ...........     ...     ... 

Riff 5b 

E|-----------------------------------|--------------------------------| 
B|-----------------------------------|--------------------------------| 
G|-----------------------------------|--------------------------------| 
D|-----------------------------------|--------------------------------| 
A|--------------5-----------------4--|-------------5-------4-------3--| 
E|--0-0-0-0-0-0-3---0-0-0-0-0-0-0-2--|-0-0-0-0-0-0-3---0-0-2---0-0-1--| 
P.M ...........     .............      ...........     ...     ... 

Riff 6 

E|----------------------------------|------------------------------------| 
B|----------------------------------|------------------------------------| 
G|----------------------------------|------------------------------------| 
D|----------------------------------|------------------------------------| 
A|---------------------------4---5--|-----------------4------4-----------| 
E|----0--3---5p0-0-0-3---0-0-2---3--|-0---3---5p0-0-0-2------2-----------| 
P.M   .          ...     ...          .           ... 

Riff 7 

E|----------------------------------|----------------------------------| 
B|----------------------------------|----------------------------------| 
G|----------------------------------|----------------------------------| 
D|----------------------------------|----------------------------------| 
A|--------------------------4---5---|-----------------4----------------| 
E|---0--3---5p0-0-0-3---0-0-2---3---|-0---3---5p0-0-0-2----------------| 
P.M  .          ...     ...           .           ... 

Riff 8 

E|----------------------------------|----------------------------------| 
B|----------------------------------|----------------------------------| 
G|----------------------------------|----------------------------------| 
D|-------------------3-----4-----3--|----------------------------------| 
A|-2-----5-----2-----1-----2-----1--|-1-1-1-1-1-1-1-1-1-1-1-1-1-1-1-1--| 
E|-0-----3-----0--------------------|----------------------------------| 

Riff 9 


E|----------------------------------| 
B|----------------------------------| 
G|----------------------------------| 
D|-------------------3-----4-----3--| 
A|-2-----5-----2-----1-----2-----1--| 
E|-0-----3-----0--------------------| 

Riff 10a 

E|-------------|------------|--------------|------------|-------------|| 
B|-------------|------------|--------------|------------|-------------|| 
G|-------------|-2----------|-(2)----------|-5----------|-(5)---------|| 
D|--3----7-5-4-|-2----------|-(2)--------4-|-5----------|-(5)---4---2-|| 
A|--1----5-3-2-|-0----------|-(0)----5-7-2-|-3----------|-(3)---2-5-0-|| 
E|-------------|------------|--------3-5---|------------|---------3---|| 
P.M        ...                       .....                        . 

Solo 

E|----------------------------------------------------------|--------------------------------| 
B|----------------------------------------------------------|--------------------------------| 
G|-9b-9b-9b-9b-9b-9b-9b-9b-9b-9b-9b-9b-9b-9b-9b-9b-9b-9b-9b-|9-9-9-9-9-9-9-9-9---7-9-----9-7-| 
D|----------------------------------------------------------|--------------------------------| 
A|----------------------------------------------------------|--------------------------------| 
E|----------------------------------------------------------|--------------------------------| 

E|-----------------------|10-7--------------------------------------------| 
B|-----------------------|-----10-7---------------------------------------| 
G|-----------------------|----------9-7---7-9-7---7-9-7-------------------| 
D|9----7-9p7---7-9p7-9p7-|--------------9-------9-------9-7-9-7-----------| 
A|-----------9-----------|--------------------------------------9-7-9-7---| 
E|-----------------------|----------------------------------------------8-| 

E|------------------------------------|-----------------7h9p7-------------| 
B|------------------------------------|-----------------------10p7--------| 
G|--------------------------------7-9-|-9p7-9p7---7-9-7------------9p7-7h9| 
D|------------------5-7--5h7-7-9------|---------9-------------------------| 
A|-------------5-7--------------------|-----------------------------------| 
E|5s7------5h7------------------------|-----------------------------------| 

E|----------------------------------|------------------|---------12-----14| 
B|----------------------------------|------------------|---12s14---su15---| 
G|7h9p7-------7-9--9p7---9-7-----9s-|----------7-------|14----------------| 
D|------9-7-9----------9-----7-9----|7s9--7s9-----14s16|------------------| 
A|----------------------------------|------------------|------------------| 
E|----------------------------------|------------------|------------------| 

E|15p14-14-14-15p14-17p14-19p14-17----17p14----14-| 
B|------------------------------------------15----| 
G|------------------------------------------------| 
D|------------------------------------------------| 
A|------------------------------------------------| 
E|------------------------------------------------| 

E|17p14-19p14-17p14----14-17-----17b----17b----17b---| 
B|------------------17-------------------------------| 
G|---------------------------------------------------| 
D|---------------------------------------------------| 
A|---------------------------------------------------| 
E|---------------------------------------------------| 

E|17b----(17)---14--17p14-15p14-15p14----------------------------------| 
B|------------------------------------17-14-17p15p14-14-16----14-------| 
G|---------------------------------------------------------16----16-14-| 
D|---------------------------------------------------------------------| 
A|---------------------------------------------------------------------| 
E|---------------------------------------------------------------------| 

E|------------------------------------------------| 
B|------------------------------------------------| 
G|14-16-12-11-14-12-11----11----------------------| 
D|---------------------14----14-12-11-12-11-------| 
A|------------------------------------------14-12-| 
E|------------------------------------------------| 

E|--------------------------------------------------------------------| 
B|--------------------------------------------------------------------| 
G|--------------------------------------------------------------------| 
D|10-12-10----10------------------------------------------------------| 
A|---------12----12-10-12-10-12-10------------------------------------| 
E|---------------------------------12-10-12-10s12---------------------| 

SOLO BACKING 

E|--------------------------------------------------------------------| 
B|--------------------------------------------------------------------| 
G|--------------------------------------------------------------------| 
D|--------------------------------------------------------------------| 
A|--------------------------------------------------------------------| 
E|--0-0000--0-0000--0-0000--0-0000--5-5555--5-5555--3-3333--3-3333----| 
P.M ......  ......  ......  ......  ......  ......  ......  ...... 

Riff 10b 

E|-------------------------------| 
B|-------------------------------| 
G|-------------------------------| 
D|-------------------------------| 
A|--2-4-5---2-4-5---2-4-5---2-4-5| 
E|--0-2-3---0-2-3---0-2-3---0-2-3| 

Riff 11, two guitars. GTR I plays higher notes 

E|--19----19----19-----15-----17-----14—-15-----12--14-------| 
B|------------------------------------------------------15---| 
G|-----------------------------------------------------------| 
D|-----------------------------------------------------------| 
A|-----------------------------------------------------------| 
E|-----------------------------------------------------------| 

E|--15----15----15-----12-----14---------12------------------| 
B|-----------------------------------15---------14--15--12---| 
G|-----------------------------------------------------------| 
D|-----------------------------------------------------------| 
A|-----------------------------------------------------------| 
E|-----------------------------------------------------------| 

E|15--12--14---------12----------------|----------------------------| 
B|------------15---------14--15-----13-|-13--12----13--13--12----13-| 
G|-------------------------------------|----------------------------| 
D|-------------------------------------|----------------------------| 
A|-------------------------------------|----------------------------| 
E|-------------------------------------|----------------------------| 

E|12-----------------------------------|----------------------------| 
B|----14--15--12-----14------12--------|----------------------------| 
G|-----------------------14---------13-|-14--12----14--14--12----14-| 
D|-------------------------------------|----------------------------| 
A|-------------------------------------|----------------------------| 
E|-------------------------------------|----------------------------| 

E|10--12p10-12p10-------------------10--12p10-12p10----| 
B|----------------13--13--12----13------------------13-| 
G|-----------------------------------------------------| 
D|-----------------------------------------------------| 
A|-----------------------------------------------------| 
E|-----------------------------------------------------| 

E|-----------------------------------------------------| 
B|12—-13p12-13p12--------------------12—13p12-13p12----| 
G|----------------14--14--12----14------------------14-| 
D|-----------------------------------------------------| 
A|-----------------------------------------------------| 
E|-----------------------------------------------------| 

E|-----------------12--10--------------------------|10--------------------| 
B|-13--10----12-13---------13--12--12--10----12-13-|----13--12--10--10--12| 
G|-------------------------------------------------|----------------------| 
D|-------------------------------------------------|----------------------| 
A|-------------------------------------------------|----------------------| 
E|-------------------------------------------------|----------------------| 

E|-------------------------------------------------|----------------------| 
B|-----------------13--12--------------------------|12--------------------| 
G|-14--11----12-14---------14--12--12--11----12-14-|----14--12--11--11--12| 
D|-------------------------------------------------|----------------------| 
A|-------------------------------------------------|----------------------| 
E|-------------------------------------------------|----------------------| 

E|--------------------------10------19----19-----| 
B|(12)--10-13-13--12h13-10------12---------------| 
G|-----------------------------------------------| 
D|-----------------------------------------------| 
A|-----------------------------------------------| 
E|-----------------------------------------------| 

E|----------------------------------15----15-----| 
B|--------------------------12-------------------| 
G|(12)--11-14-14—-12h14-11------12---------------| 
D|-----------------------------------------------| 
A|-----------------------------------------------| 
E|-----------------------------------------------| 


E|------------------------10--------| 
B|(12)--10--13--12h13-10------12----| 
G|----------------------------------| 
D|----------------------------------| 
A|----------------------------------| 
E|----------------------------------| 

E|----------------------------------| 
B|------------------------12--------| 
G|(12)--11--14—-12h14-11------12----| 
D|----------------------------------| 
A|----------------------------------| 
E|----------------------------------| 

Riff 12 (DIVEBOMB) 

E|-------------------| 
B|-------------------| 
G|--3*---------------| 
D|-------------------| 
A|-------------------| 
E|-------------------| 

Riff 13 

E|------------|--------------------------|----------------| 
B|------------|--------------------------|----------------| 
G|------------|-9--9--9--9----9--9--9--9-|-9--------------| 
D|-2----------|-9--9--9--9----9--9--9--9-|-9--------------| 
A|-2----------|-7--7--7--7----7--7--7--7-|-7--------------| 
E|-0----------|--------------------------|----------------| 
	  

No existe una video leccione para esta canción

request
LosAcordes
Buscar
auto avanzar rasgueos aumentar disminuir cambiar color esconder acordes gráficos
losacordes exhibir acordes losacordes youTube video losacordes ocultar tabs losacordes ir hacia arriba losacordes