Summerlane

Início > Summerlane > acordes

Move Along Tablatura

Summerlane

Dificultad:Ningún gradoNingún grado

renejunior

tuner correct add songbook print version text version salvar en e-mail
acordesukuleletablaturabajobateríaarmónicaflautacavacopiano Guitar Pro
acordes

Move Along

	  Intro/Post Chorus 
E|------------------------------------------------------------------------------| 
B|------------------------------------------------------------------------------| 
G|------------------------------------------------------------------------------| 
D|---5-5-5-5------------7-7-7-7--------------9-9-9-9----------------------------| 
A|---5-5-5-5---4p0-4h5--7-7-7-7---7p0--7h9---9-9-9-9---7p0-7h9-4h5p4---4h5p4--0-| 
D|---5-5-5-5------------7-7-7-7--------------9-9-9-9-----------------5----------| 

verse 1 
E|---------------------------------------------------------------------------| 
B|---------------------------------------------------------------------------| 
G|---------------------------------------------------------------------------| 
D|--5-5-5-5--5-5-5-5---0-0-0-0--0-0-0-0--7-7-7-7--7-7-7-7--------------------| 
A|--5-5-5-5--5-5-5-5---0-0-0-0--0-0-0-0--7-7-7-7--7-7-7-7--4h5p4p0--7p0-7h9--| 
D|--5-5-5-5--5-5-5-5---0-0-0-0--0-0-0-0--7-7-7-7--7-7-7-7--------------------| 

E|---------------------------------------------------------------------------| 
B|---------------------------------------------------------------------------| 
G|---------------------------------------------------------------------------| 
D|--5-5-5-5--5-5-5-5---0-0-0-0--0-0-0-0--7-7-7-7--7-7-7-7--------------------| 
A|--5-5-5-5--5-5-5-5---0-0-0-0--0-0-0-0--7-7-7-7--7-7-7-7--5h9p5h7--7-7--7---| 
D|--5-5-5-5--5-5-5-5---0-0-0-0--0-0-0-0--7-7-7-7--7-7-7-7--------------------| 

PreChorus 
E|---------------------------------------------------------------------------| 
B|---------------------------------------------------------------------------| 
G|---------------------------------------------------------------------------| 
D|------------------------------------------------------------------7-7-7-7--| 
A|-----------------5-5-----------5-5-5-5--------------------5-5-5-5----------| 
D|--5-5-5-5---4-4-------0-0-0-0-----------7-7-7-7--7-7-7-7-------------------| 

E|---------------------------------------------------------------------------| 
B|---------------------------------------------------------------------------| 
G|---------------------------------------------------------------------------| 
D|---------------------------------------------------------------------------| 
A|-----------------5-5-----------5-5-5-5-------------------------------------| 
D|--5-5-5-5---4-4-------0-0-0-0-----------7-7-7-7--7-7-7-7--7-7-7-7--7-------| 

Choruses 
E|-----------------------------------------------------------------------------| 
B|-----------------------------------------------------------------------------| 
G|-----------------------------------------------------------------------------| 
D|---0-0-0-0--0-0-0-0--5-5-5-5--5-5-5-5--9-9-9-9---9-9-9-5---5-5-5-5--5-5-5-5--| 
A|---0-0-0-0--0-0-0-0--5-5-5-5--5-5-5-5--9-9-9-9---9-9-9-5---5-5-5-5--5-5-5-5--| 
D|---0-0-0-0--0-0-0-0--5-5-5-5--5-5-5-5--9-9-9-9---9-9-9-5---5-5-5-5--5-5-5-5--| 

verse 2 
E|---------------------------------------------------------------------------| 
B|--------7-----------7------------7-----------------------------------------| 
G|--------7-----------7------------7-----------------------------------------| 
D|---------------------------------------------------------------------------| 
A|---------------------------------------------------------------------------| 
D|---5-5---------0-0---------7-7---------------------------------------------| 

E|---------------------------------------------------------------------------| 
B|--------7-----------7----------------------7-------------------------------| 
G|--------7-----------7-----6h7p6-----7--9------7--6----6----7----7----------| 
D|--------------------------------7-------------------7----7---7----7--------| 
A|---------------------------------------------------------------------------| 
D|---5-5---------0-0---------------------------------------------------------| 

Bridge 
E|-------------------------------------------------------------------------------| 
B|-------------------------------------------------------------------------------| 
G|-------------------------------------------------------------------------------| 
D|-------------------------------------------------------5-5-5--5-5---5-5-5--5-5-| 2 times 
A|-------------------------------------------------9-9---5-5-5--5-5---5-5-5--5-5-| 
D|----7--9-9--7--9-9----12-12-----7--9-9--7--9-9---------5-5-5--5-5---5-5-5--5-5-| 

E|------------------------------------------------------------------------------------------------| 
B|----12------12------12-------14-----14------14-------8-------8------8------8------8------8------| 
G|----14b16---14b16---14b16----16b18--16b18---16b18----10b12---10b12--10b12--10b12--10b12--10b12--| 
D|------------------------------------------------------------------------------------------------| 
A|------------------------------------------------------------------------------------------------| 
D|------------------------------------------------------------------------------------------------| 

E|---------------------------------------------------------------------------| 
B|----12------12------12-------14-----14------14--------10----------15-------| 
G|----14b16---14b16---14b16----16b18--16b18---16b18-----12b14-------17b19----| 
D|---------------------------------------------------------------------------| 
A|---------------------------------------------------------------------------| 
D|---------------------------------------------------------------------------| 

Outro 
E|---------------------------------------------------------------------------| 
B|---------------------------------------------------------------------------| 
G|---------11--11--------11--11---------11--11-------------------------------| 
D|---5-5-----------7-7------------9-9----------------------------------------| 
A|---5-5---9---9---7-7---9---9----9-9---9---9-----4h5p4-----4h5p4p0----------| 
D|---5-5-----------7-7------------9-9--------------------5-------------------| 

E|---------------------------------------------------------------------------| 
B|---------------------------------------------------------------------------| 
G|---------11--11--------11--11---------11--11-------------------------------| 
D|---5-5-----------7-7------------9-9---------------------------------5------| 
A|---5-5---9---9---7-7---9---9----9-9---9---9-----4h5p4-----4h5p4p0---5------| 
D|---5-5-----------7-7------------9-9--------------------5------------5------| 
	  

No existe una video leccione para esta canción

request
LosAcordes
Buscar
auto avanzar rasgueos aumentar disminuir cambiar color esconder acordes gráficos
losacordes exhibir acordes losacordes youTube video losacordes ocultar tabs losacordes ir hacia arriba losacordes