Suicidal Tendencies

Início > Suicidal T... > acordes

Cyco Vision Tablatura

Suicidal Tendencies

Dificultad:FácilFácil

tuner correct add songbook print version text version salvar en e-mail
acordesukuleletablaturabajobateríaarmónicaflautacavacopiano Guitar Pro
acordes

Cyco Vision

	   
|------------------------------| 
|-------------12~~~~~~~~~~~~~\-| 
|-11~~~~~~~~~~-----------------| 
|------------------------------| 
|------------------------------| 
|------------------------------| 
 
|-------------------------------------| 
|-------------------------------------| 
|-------------------------------------| 
|-------------------------------------| 
|-9-9-9-9-10-10-10-10-7-7-7-7-7-7-7-7-| 
|-7-7-7-7-8--8--8--8--5-5-5-5-5-5-5-5-| 
 
|-----------------------------------------------------------| 
|-----------------------------------------------------------| 
|-----------------------------------------------------------| 
|-----------------------------------------------------------| 
|-6-4-6-{6}-{6}-{6}--6-4-6-{6}-{6}-{6}--6-4-6-{6}-{6}-{6}-| 
|-4-2-4-{4}-{4}-{4}--4-2-4-{4}-{4}-{4}--4-2-4-{4}-{4}-{4}-| 
 
|----------------------------| 
|----------------------------| 
|---------7-6-7-6------------| 
|---------5-4-5-4------------| 
|-4-4-4-4----------2-2-2-2-2-| 
|-2-2-2-2----------0-0-0-0-0-| 
 
 
pronto, eh isso, com esses riffs ai acima vc toca a musica toda menos o solo, flw! 
 
_______________________________________________________ 
Contribuição: Fillipe Dobbin([email protected]) 

	  

No existe una video leccione para esta canción

request
LosAcordes
Buscar
auto avanzar rasgueos aumentar disminuir cambiar color esconder acordes gráficos
losacordes exhibir acordes losacordes youTube video losacordes ocultar tabs losacordes ir hacia arriba losacordes