Story of The Year

Início > Story of T... > acordes

Take Me Back Tablatura

Story of The Year

Dificultad:PrincipiantePrincipiante

PaZiN

tuner correct add songbook print version text version salvar en e-mail
acordesukuleletablaturabajobateríaarmónicaflautacavacopiano Guitar Pro
acordes

Take Me Back

	  Intro: 
e-----------------------------------------------| 
b-----------------------------------------------| 
g-----------88-99-------------------------------| 
d----6666---88-99---9999---4444-----------------| 
a----6666---66-77---9999---4444-----------------| 
d----6666-----------9999---4444-----------------| 
 
 
e-------------------------------------------------| 
b-------------------------------------------------| 
g-----6h8--88686----------------------------------| 
d----------------986--9999869/11------------------| 
a-------------------------------------------------| 
d-------------------------------------------------| 
 
verse: pm intro then release pm 
 
Chorus: i know this isn't right but its all i can get. theres a lead part over the rhythm 
 
e---------------------------------------------------------------| 
b---------------------------------------------------------------| 
g------------------------------------------444444444444---------| 
d---222222222222-444444444444-666666666666-444444444444---------| x2 
a---222222222222-444444444444-666666666666-222222222222---------| 
d---222222222222-444444444444-666666666666----------------------| 
 
 
post Chorus: 
 
e----------------------------------------------------------| 
b----------------------------------------------------------| 
g-----------88-99-----------------------11--11--11---------| 
d----6666---88-99---9999---4444----------x---x---x---------| 
a----6666---66-77---9999---4444---x2-----9---9---9---------| 
d----6666-----------9999---4444----------------------------| 
 
 
repeat verse 
repeat Chorus 
 
 

	  

No existe una video leccione para esta canción

request
LosAcordes
Buscar
auto avanzar rasgueos aumentar disminuir cambiar color esconder acordes gráficos
losacordes exhibir acordes losacordes youTube video losacordes ocultar tabs losacordes ir hacia arriba losacordes