Stone Temple Pilots

Início > Stone Temp... > acordes

Sour Girl Tablatura

Stone Temple Pilots

Dificultad:Ningún gradoNingún grado

tuner correct add songbook print version text version salvar en e-mail
acordesukuleletablaturabajobateriaarmónicaflautacavacopiano Guitar Pro
acordes

Sour Girl

	  Standard Tuning

Guitar 1 = acoustic
Guitar 2 = clean electric
Guitar 3 = electric w/ light distortion 

INTRO/MAIN RIFF

Guitars 1 & 2
|--------------------------------------------------------------------|
|---------1------------------1---------------------------------------|
|-------0------------------0-----------------0-----2---2-2-4-4---4---|
|-0-2-3--------2-------0-1-----0-----------0-------3---3-3-5-5---5---|
|------------------3---------------2---2-3-----2---3---3-3-5-5---5---|
|--------------------------------------------------1---1-1-3-3---3---|

|------------------------------------------------------------------------|
|---------1------------------1-------------------------------------------|
|-------0------------------0-----------------0-----2---2-2-4-4---4---4---|
|-0-2-3--------2-------0-1-----0-----------0-------3---3-3-5-5---5---5---|
|------------------3---------------2---2-3-----2---3---3-3-5-5---5---5---|
|--------------------------------------------------1---1-1-3-3---3---3---|

VERSE

Guitars 1 & 2
|---5---5---5-5---1-1---3---3-3---|
|---3---3---3-3---1-1---3---3-3---|
|---2---5---5-5---2-2---4---5-4---|
|-4-4---3---3-3---3-3---5---5-5---|
|---------------------------------|
|---------------------------------|

CHORUS

Guitars 1 & 2
|---------------------------------0---0---0-0---3---3-3---3-3-3---|
|-6---6---6-6---6---6-6---6-6-6---1---1---1-1---3---3-3---3-3-3---|
|-5---5---5-5---5---5-5---5-5-5---0---0---0-0---0---0-0---0-0-0---|
|-0---0---0-0---7---7-7---7-7-7---2---2---2-2---0---0-0---0-0-0---|
|-x---x---x-x---0---0-0---0-0-0---3---3---3-3---x---x-x---x-x-x---|
|-6---6---6-6-----------------------------------3---3-3---3-3-3---|

SLIDE SOLO

Guitar 3 (dist. w/ sustain & octave)
|-(10)--------------------\8------/10-------------/12-/13---/15-\12-\10-\8---/10---|
|----------------------------------------------------------------------------------|
|----------------------------------------------------------------------------------|
|----------------------------------------------------------------------------------|
|----------------------------------------------------------------------------------|
|----------------------------------------------------------------------------------|

SECOND & LAST CHORUS

NOTE: rhythm slightly adjusted for hammer-on's and pull-off's

Guitar 3 (light dist.)
|----------------------------------------------------------------------------------|
|-6---6-------6-----6---------------------8---8-------8-----8-------8--------------|
|-5/7-5/7\5---5/7---5---------------------7/9-7/9\7---7/9---7-------7--------------|
|-----------8---------------------------------------10----------10-----------------|
|----------------------------------------------------------------------------------|
|----------------------------------------------------------------------------------|
   H   H P     H                           H   H P     H

|----------------------------------------------------------------------------------|
|-6---6-------6-----6--------------------------------------------------------------|
|-5/7-5/7\5---5/7---5--------------------------------------------------------------|
|-----------8----------------------------------------------------------------------|
|----------------------------------------------------------------------------------|
|----------------------------------------------------------------------------------|
   H   H P     H

|-------------------------------------------------3-----------------------|
|-6---6-------6-----6-------------------------1-----1-------1---0---------|
|-5/7-5/7\5---5/7---5---------------------------0-------------------2-0---|
|-----------8-----------------------------2-----------2-0-----------------|
|-------------------------------------------------------------------------|
|-------------------------------------------------------------------------|
   H   H P     H

|-----------------------------------------------------------------|
|-6-------------6-----------------8-----12------15----------------|
|-5-------------5-----------------x-----x-------x-----------------|
|-8-------------7-----------------5-----9-------12----------------|
|-----------------------------------------------------------------|
|-----------------------------------------------------------------|

INTERLUDE

Guitars 1 & 2
|-----------------------------------------------------------------|
|---------1-------------------------------1-----------------------|
|-------0-------------------------------0-------------------------|
|-0-2-3-----3-----------------------0-1-----1---------------------|
|---------------3-----------------3-------------2-----------------|
|-----------------------------------------------------------------|

|-------------------------------------|
|-------------------------------------|
|---------------2---2-2-4-4---4---4---|
|-------0-------3---3-3-5-5---5---5---|
|-2-2-3---3-2---3---3-3-5-5---5---5---|
|---------------1---1-1-3-3---3---3---|

END SOLO
Play slide solo and slide down to 5th fret after last note
	  

No existe una video leccione para esta canción

request
LosAcordes
Buscar
auto avanzar rasgueos aumentar disminuir cambiar color esconder acordes gráficos
losacordes exhibir acordes losacordes youTube video losacordes ocultar tabs losacordes ir hacia arriba losacordes