Stone Temple Pilots

Início > Stone Temp... > acordes

Lady Picture Show Tablatura

Stone Temple Pilots

Dificultad:Ningún gradoNingún grado

chekky

tuner correct add songbook print version text version salvar en e-mail
acordesukuleletablaturabajobateriaarmónicaflautacavacopiano Guitar Pro
acordes

Lady Picture Show

	  e-----------------------------------------------------| 
B------------------s/14-12-14-14-12--10h12r10--9-10-9-| 
G-----------s/13-11-----------------------------------| 
D-------s/11-9----------------------------------------| 
A---s/9-7---------------------------------------------| 
E-----------------------------------------------------  | 


e---------------------------------12-11-12-9-12---12-11-| 
B-----9------------12----12---------------------12------| 
G--11---11-11-9-13----13----13--------------------------| 
D-------------------------------------------------------| 
A-------------------------------------------------------| 
E-------------------------------------------------------| 


e--12----12-11-12-9-12----------12-11-12----| 
B-----12---------------12----------------12-| 
G-------------------------------------------| 
D-------------------------------------------|      
A-------------------------------------------|      
E-------------------------------------------| 
	  

No existe una video leccione para esta canción

request
LosAcordes
Buscar
auto avanzar rasgueos aumentar disminuir cambiar color esconder acordes gráficos
losacordes exhibir acordes losacordes youTube video losacordes ocultar tabs losacordes ir hacia arriba losacordes